Guitar Tabs, Chords and Lyrics
Major upgrade!! After one year development the new version of Chordie is now online! Please give feedback.


Rain   Rusted Root

 
 d-------------------------------------------------------------------------------
 B--------------0-0-3^0-0-0-3/5-3-3--0-0-3/5-3-3-0-0-----------------------------
 G------0-0-2/4-0------------------------------------2/4--2-2-2-2-0--2--0--2--0--
 D--3/5--------------------------------------------------------------------------
 G-------------------------------------------------------------------------------
 D-------------------------------------------------------------------------------

 


 


 [1/4] [1/2] 


 

 
 d------------------------------------------------------------------------------
 B------------------------------------------------------------------------------
 G--2/4-x-2-2-2-0----2/4\--2-2-2-0-----0-----0----0--0--0----0---2^---^----2/4--
 D----------------------------------2-----0-------0--0----2---------------------
 G------------------------------------------------------------------------------
 D------------------------------------------------------------------------------
 d-------------------------------------------0----------------------------------
 B----------------------------------------0--0--3^0-0-0-3/5-5-5-5-5-5-5-5-5-5-5-
 G--2-2-0-2-2-2-0-0-----0--------0-0-2/4--0-------------------------------------
 D------------------2---0---3/5-------------------------------------------------
 G------------------------------------------------------------------------------
 D------------------------------------------------------------------------------
 d----------------------------0--------------------------------------------------
 B--3-0---0--------------0-----------------------0-------------------------------
 G----------2-----0---0--0-------0-----0---2^0-0-0--2/4---2-0-0-2-0-0------0-0---
 D--------------2-----0----------0--2--0--------------------------------2------2-
 G-------------------------------------------------------------------------------
 D-------------------------------------------------------------------------------
 d------------------------------------------------------------------------------
 B---------------0-0-0-0-0-0-0-0-0--------------------------------------0-------
 G--0----0-------------------0-------2--0-2-2-2-0-0----0-----0-0------0-0-2/4---
 D--0-------3/5-------------------------------------2--0--0--0-0--3/5-----------
 G------------------------------------------------------------------------------
 D------------------------------------------------------------------------------

 


 


 [1/4] 


 [1/4]  

 
 d--------------------0----------------------------------------------------------
 B--0-0-3^0-0-0-3/5-x----0-0-3/5-3-0-0--3-0-0-0-------0-------------0-------0----
 G------------------------------------------------2-0---------0-2^-----2^-----0--
 D---------------------------------------------------------2---------------------
 G-------------------------------------------------------------------------------
 D-------------------------------------------------------------------------------
 d-----------------------------------------------
 B-------------------------0--0-----------0-0----
 G--2/4-2-0-0-2--2/4-2-0-0-0--0----0------0-0----
 D------------------------------2-----0----------
 G-----------------------------------------------
 D-----------------------------------------------

 


 


 Verse:


 


 

 
 d------------------------------0-0-0-0-0---------------------------0----------
 B---------0--0-0-3^0-0-0-3/5-0-------0----3^0-0-5^0-0-3^0----------0--0-0-----
 G-----0---0-----------------------------------------------0-----0--0--0-0-0---
 D--0--0-----------------------------------------------------2---0-----0-0-0---
 G-----------------------------------------------------------------------------
 D-----------------------------------------------------------------------------
 d----------------------------------------------0------------------------------
 B----------------------------------------------0---------0-0-3^0-0-0-3/5-0-0--
 G--2--0--2-2-2-2-2-2-2-2-2-2-2-2-0-0---0-------0------3-----------------------
 D------------------------------------2---0-2---0---0--------------------------
 G-----------------------------------------------------------------------------
 D-----------------------------------------------------------------------------
 d-------------------------------------0------0--------------------------------
 B--3^0-0-0-3/5-0-0-0-0----------------0------0--------0----0--0---------------
 G-----------------------3/---------0--0---0-----0-----0--2----0---2/4-4-4---0-
 D---------------------------2--0---0------0-----0--2----------------------0---
 G-----------------------------------------------------------------------------
 D-----------------------------------------------------------------------------
 d------------0-0-0-0-------
 B------0-----0-0-0-0-------
 G--2---0-----0-0-0-0-------
 D---------2------0-0-------
 G--------------------------
 D--------------------------

 


 


 Pre-chorus:


 


 

 
 d-----5----0-0------0-----0-0----------------------------------------------5---
 B-----5----0-0------0-----0-0----3-5-5-5-3^5^3-------------------0-0-------5---
 G--5--5----0-0-0----0-------0------------------4-4-2^4^2---0---0-0-0----5--5---
 D--5--5--------0----0-------0----------------------------2-0-2-0-0------5--5---
 G--5-----------0--------------------------------------------------------5------
 D------------------------------------------------------------------------------
 d--0--0-------0-------0------------------------------------------------5----0--
 B--0--0-------0-------0--0----3-5-5-5-3^5^3----------------------------5----0--
 G---------0---0----------0------------------4-4-4-4---0---0-0-0----5---5----0--
 D---------0---0-------------------------------------2---2----------5---5-------
 G---------0--------------------------------------------------------5-----------
 D------------------------------------------------------------------------------

 


 


 [1/2]  

 
 d--0------0-----0-----------------------------5^------------5---0-0--0--0-0-0-0-
 B--0------0-----0--0------------------3^0-0-0-----0-0-------5---0-0--0--0-0-0-0-
 G--0--0---0--------0--------0-2^0-0-0-----0-------0-0---5---5--------0--0-0-0-0-
 D-----0---0--------0----3/5-----------------------------5---5--------0--0-0-0-0-
 G-----0-------------------------------------------------5-----------------------
 D-------------------------------------------------------------------------------

 


 


 1/2=========================


 

 
 d--0-0--0--0-0-------------0---0---0---0---0---0--------
 B--0-0---------5--3-3-5^---5^--5^--5^--5^--5^--5^-------
 G--0-0---------0--0-0-----------------------------------
 D--0-0--------------------------------------------------
 G-------------------------------------------------------
 D-------------------------------------------------------

 


 


 Chorus:


 


 D C G (3x's)


 


 Interlude:


 


 

 
 d--3---------------3--------3-----------3----
 B--3------0-1-2----3--------3-----------3----
 G--4---------------4--------4-----------4----
 D--5---------------5--------5-----------5----
 G--------------------------------------------
 D--------------------------------------------

 


 Interlude Fill (2nd time):


 


 

 
 d--3----3----3--------
 B--3----3----3--------
 G--4----4----4--------
 D---------------------
 B---------------------
 D---------------------

 


 


 1st solo:


 


 

 
 d--------------------------------------------------0--0-0--2^0--0---3-3-3-3-0--
 B--0--0--------------------------------------------0--0-0-------0--------------
 G--0--0-0----0--2-2-0-0-2-2-2-2-2/4---2-0-0----0---0--0-0----------------------
 D--0------2---------------------------------2------0---------------------------
 B------------------------------------------------------------------------------
 D------------------------------------------------------------------------------
 d--2-0--3^0-0-2-0-0--2^0---0-0-0---0-----0-2-0---------------------------------
 B------------------------0-------0---0-0-------0-0-0---------------------------
 G-----------------------------------------------------2^0---2---2-0--2--0-2-2--
 D-----------------------------------------------------0------------------------
 B------------------------------------------------------------------------------
 D------------------------------------------------------------------------------
 d-------------------------------------0-0-3^0-0-2---0-2^0-0-3^0-0-2^0-0-5-0-0---
 B-----------------------------0-0-5^0-----------------------------------------0-
 G--0-0--2/4-----0-0----0--------------------------------------------------------
 D-------------------2-----0-----------------------------------------------------
 B-------------------------------------------------------------------------------
 D-------------------------------------------------------------------------------
 d--2^0-------------0---2^0-0-3^0-0-5^0-0-2-0-0-3^0-0-0-0-0-2-2-0-3-0-0-x-0-2-0--
 B------3/5-3-3-0-0-0---0-----------------------------0---0----------------------
 G-------------------------------------------------------------------------------
 D-------------------------------------------------------------------------------
 B-------------------------------------------------------------------------------
 D-------------------------------------------------------------------------------
 d--0-0-----------0-----------------------------------0-------------------------
 B------3^0-------0------0------------------------------------------------------
 G-----------0----0--------0------0---2--2--0---2/4-4---2--0--2/3-2-2-2-0----0--
 D-----------0----0-----------2-------------------------------------------2-----
 B------------------------------------------------------------------------------
 D------------------------------------------------------------------------------
 d----------------------------------------------------0-0------------------------
 B--0-----------------------------------------------------0-0--0-----------------
 G--0------0-0-0-3---4--------0--3-4-4-4-4-4-4-4-4-4------0-0--0---------0---2-2-
 D----------------------0--0-----------------------------------0------2----------
 B-------------------------------------------------------------------------------
 D-------------------------------------------------------------------------------

 


 


 w/Fill 1.


 

 
 d-------------------------------------------------------------------------------
 B-------------------------------------------------------------3-3-0-0-3-0-0-5^0-
 G--2-2-0-0--2/4----x-0-x-2--0-----0-0--------0----0---2/4-4-4-------------------
 D------------------------------2---------2---0----------------------------------
 B-------------------------------------------------------------------------------
 D-------------------------------------------------------------------------------
 d-------------------------------
 B--3-3-3-3-5-5-5-5-5-0-0--------
 G----0-0-------------0-0--------
 D-------------------------------
 B-------------------------------
 D-------------------------------

 


 


 Fill 1.:


 


 

 
 d--3--------3--------3--------3-------3-------------------------
 B-----3-----------------3--------3----------6---3---0--0--------
 G---------------------------------------------------0--0--------
 D---------------------------------------------------------------
 B---------------------------------------------------------------
 D---------------------------------------------------------------

 


 


 Pre-Chorus:


 


 Chorus:


 


 Interlude:


 


 2nd solo:


 


 Gtr.I


 

 
 d--0----0--0---------0---0---0--0-----0---0----0----0---0---0--0---0-----0-----
 B-10---12-12-----12-12--10--12-12--------12---10---12--12--12-----10----12^0---
 G--0-----------------0---0---0--0---------0----0----0---0---0------0-----0-----
 D------------------------------------------------------------------------------
 B------------------------------------------------------------------------------
 D------------------------------------------------------------------------------
 d---0--0---0--0--0----0---0--0----0--0----0---0---0-----0--0--0--0----------0--
 B--13-----12-12-10---10--12-12---12-10---12--13-----10-12-12-10-12---12-12-10--
 G---0------0--0--0----0---0--0------------0---0------------0--0--0----------0--
 D------------------------------------------------------------------------------
 B------------------------------------------------------------------------------
 D------------------------------------------------------------------------------

 


 


 


 [1/2] [1/2]  

 
 d---0--0--0--0--0--0--0--0--0--0--0--0---0--0--0--0--0-------0---0--0------0---
 B--13-13-10-12----12----12-12-12-12-12--12-12-12----12^--12-12--10-12-----12^--
 G------0--0--0-----0-----------0-----0---0-----0-----0-------0---0--0------0---
 D-----13-----------------------------------------------------------------0-----
 B------------------------------------------------------------------------------
 D------------------------------------------------------------------------------
 d----------0--0--0--0--0--0--0--0--0--0--0--2--0-------0----------------0-0----
 B--12--10-12-12-12-10-12-12-12-12-12-12-12-------0--0--0-5^0-3^0-0-0-0--0-0----
 G---0---0--0--0--0--0--0--0--0--0--0--0--0-----------------------0-0-0--0-0----
 D------------------------------------------------------------------------------
 B------------------------------------------------------------------------------
 D------------------------------------------------------------------------------
 d--0-0-3-0-2-2--0-0-0-0-0-0-0-0-0-0-0--0---0----0---0---0------0----0---0--0--
 B--0-0----------0-0-0-0-0-0-0-0-0-0-0--0--10---12--12--12-----10---12--12-12--
 G--0-0---------------------------------0---0----0---0---0------0----0---0--0--
 D--------------------------------------0--------------------------------------
 B-----------------------------------------------------------------------------
 D-----------------------------------------------------------------------------
 d---0---0--0---0---0---0---0---0---0---0---0---0---0---0---0---0---0---0-------
 B--13--13--x--13--15--15--15--15--15--15--15--17--17--17--17--17--17--17-------
 G---0---0--0---0---0---0---0---0---0---0---0---0---0---0---0---0---0---0----5--
 D---------------------------------------------------------------------------5--
 B---------------------------------------------------------------------------5--
 D------------------------------------------------------------------------------
 d--5-----0-0-0--0----0-0---------------------------------------------------5---
 B--5-----0-0-0--0----0-0---3/5--5-3^5^3-----------0-------0-0-------5------5---
 G--5-----0-0-0--0----0-0----------------4-4-2/4-0-------0-0-0---5---5------5---
 D--5---------0--0------0-----------------------------2----0-----5---5----------
 B------------0--------------------------------------------------5---5----------
 D------------------------------------------------------------------------------

 


 


 [1/2]  

 
 d--0---0---0-----0--0--0-----------------------------------0---5^-----0-------
 B--0---0---0-----0--0--0--------0--0-----------0---3^0--0--0------------------
 G--0---0---0-----0--0--0--------------2--0-----0--------0--0--------------5---
 D--0---0---0--------0--0---3/5--------------2-----------------------------5---
 B------0------------------------------------------------------------------5---
 D-----------------------------------------------------------------------------

 


 Rain


 


 Tuning (low to high) D,G,D,G,B,D


 


 Intro:


 


 

 
 d-------------------------------------------------------------------------------
 B--------------0-0-3^0-0-0-3/5-3-3--0-0-3/5-3-3-0-0-----------------------------
 G------0-0-2/4-0------------------------------------2/4--2-2-2-2-0--2--0--2--0--
 D--3/5--------------------------------------------------------------------------
 G-------------------------------------------------------------------------------
 D-------------------------------------------------------------------------------

 


 


 [1/4] [1/2] 


 

 
 d------------------------------------------------------------------------------
 B------------------------------------------------------------------------------
 G--2/4-x-2-2-2-0----2/4\--2-2-2-0-----0-----0----0--0--0----0---2^---^----2/4--
 D----------------------------------2-----0-------0--0----2---------------------
 G------------------------------------------------------------------------------
 D------------------------------------------------------------------------------
 d-------------------------------------------0----------------------------------
 B----------------------------------------0--0--3^0-0-0-3/5-5-5-5-5-5-5-5-5-5-5-
 G--2-2-0-2-2-2-0-0-----0--------0-0-2/4--0-------------------------------------
 D------------------2---0---3/5-------------------------------------------------
 G------------------------------------------------------------------------------
 D------------------------------------------------------------------------------
 d----------------------------0--------------------------------------------------
 B--3-0---0--------------0-----------------------0-------------------------------
 G----------2-----0---0--0-------0-----0---2^0-0-0--2/4---2-0-0-2-0-0------0-0---
 D--------------2-----0----------0--2--0--------------------------------2------2-
 G-------------------------------------------------------------------------------
 D-------------------------------------------------------------------------------
 d------------------------------------------------------------------------------
 B---------------0-0-0-0-0-0-0-0-0--------------------------------------0-------
 G--0----0-------------------0-------2--0-2-2-2-0-0----0-----0-0------0-0-2/4---
 D--0-------3/5-------------------------------------2--0--0--0-0--3/5-----------
 G------------------------------------------------------------------------------
 D------------------------------------------------------------------------------

 


 


 [1/4] [1/4]  

 
 d--------------------0----------------------------------------------------------
 B--0-0-3^0-0-0-3/5-x----0-0-3/5-3-0-0--3-0-0-0-------0-------------0-------0----
 G------------------------------------------------2-0---------0-2^-----2^-----0--
 D---------------------------------------------------------2---------------------
 G-------------------------------------------------------------------------------
 D-------------------------------------------------------------------------------
 d-----------------------------------------------
 B-------------------------0--0-----------0-0----
 G--2/4-2-0-0-2--2/4-2-0-0-0--0----0------0-0----
 D------------------------------2-----0----------
 G-----------------------------------------------
 D-----------------------------------------------

 


 


 Verse:


 


 

 
 d------------------------------0-0-0-0-0---------------------------0----------
 B---------0--0-0-3^0-0-0-3/5-0-------0----3^0-0-5^0-0-3^0----------0--0-0-----
 G-----0---0-----------------------------------------------0-----0--0--0-0-0---
 D--0--0-----------------------------------------------------2---0-----0-0-0---
 G-----------------------------------------------------------------------------
 D-----------------------------------------------------------------------------
 d----------------------------------------------0------------------------------
 B----------------------------------------------0---------0-0-3^0-0-0-3/5-0-0--
 G--2--0--2-2-2-2-2-2-2-2-2-2-2-2-0-0---0-------0------3-----------------------
 D------------------------------------2---0-2---0---0--------------------------
 G-----------------------------------------------------------------------------
 D-----------------------------------------------------------------------------
 d-------------------------------------0------0--------------------------------
 B--3^0-0-0-3/5-0-0-0-0----------------0------0--------0----0--0---------------
 G-----------------------3/---------0--0---0-----0-----0--2----0---2/4-4-4---0-
 D---------------------------2--0---0------0-----0--2----------------------0---
 G-----------------------------------------------------------------------------
 D-----------------------------------------------------------------------------
 d------------0-0-0-0-------
 B------0-----0-0-0-0-------
 G--2---0-----0-0-0-0-------
 D---------2------0-0-------
 G--------------------------
 D--------------------------

 


 


 Pre-chorus:


 


 

 
 d-----5----0-0------0-----0-0----------------------------------------------5---
 B-----5----0-0------0-----0-0----3-5-5-5-3^5^3-------------------0-0-------5---
 G--5--5----0-0-0----0-------0------------------4-4-2^4^2---0---0-0-0----5--5---
 D--5--5--------0----0-------0----------------------------2-0-2-0-0------5--5---
 G--5-----------0--------------------------------------------------------5------
 D------------------------------------------------------------------------------
 d--0--0-------0-------0------------------------------------------------5----0--
 B--0--0-------0-------0--0----3-5-5-5-3^5^3----------------------------5----0--
 G---------0---0----------0------------------4-4-4-4---0---0-0-0----5---5----0--
 D---------0---0-------------------------------------2---2----------5---5-------
 G---------0--------------------------------------------------------5-----------
 D------------------------------------------------------------------------------

 


 


 [1/2]  

 
 d--0------0-----0-----------------------------5^------------5---0-0--0--0-0-0-0-
 B--0------0-----0--0------------------3^0-0-0-----0-0-------5---0-0--0--0-0-0-0-
 G--0--0---0--------0--------0-2^0-0-0-----0-------0-0---5---5--------0--0-0-0-0-
 D-----0---0--------0----3/5-----------------------------5---5--------0--0-0-0-0-
 G-----0-------------------------------------------------5-----------------------
 D-------------------------------------------------------------------------------

 


 


 1/2=========================


 

 
 d--0-0--0--0-0-------------0---0---0---0---0---0--------
 B--0-0---------5--3-3-5^---5^--5^--5^--5^--5^--5^-------
 G--0-0---------0--0-0-----------------------------------
 D--0-0--------------------------------------------------
 G-------------------------------------------------------
 D-------------------------------------------------------

 


 


 Chorus:


 


 D C G (3x's)


 


 Interlude:


 


 

 
 d--3---------------3--------3-----------3----
 B--3------0-1-2----3--------3-----------3----
 G--4---------------4--------4-----------4----
 D--5---------------5--------5-----------5----
 G--------------------------------------------
 D--------------------------------------------

 


 Interlude Fill (2nd time):


 


 

 
 d--3----3----3--------
 B--3----3----3--------
 G--4----4----4--------
 D---------------------
 B---------------------
 D---------------------

 


 


 1st solo:


 


 

 
 d--------------------------------------------------0--0-0--2^0--0---3-3-3-3-0--
 B--0--0--------------------------------------------0--0-0-------0--------------
 G--0--0-0----0--2-2-0-0-2-2-2-2-2/4---2-0-0----0---0--0-0----------------------
 D--0------2---------------------------------2------0---------------------------
 B------------------------------------------------------------------------------
 D------------------------------------------------------------------------------
 d--2-0--3^0-0-2-0-0--2^0---0-0-0---0-----0-2-0---------------------------------
 B------------------------0-------0---0-0-------0-0-0---------------------------
 G-----------------------------------------------------2^0---2---2-0--2--0-2-2--
 D-----------------------------------------------------0------------------------
 B------------------------------------------------------------------------------
 D------------------------------------------------------------------------------
 d-------------------------------------0-0-3^0-0-2---0-2^0-0-3^0-0-2^0-0-5-0-0---
 B-----------------------------0-0-5^0-----------------------------------------0-
 G--0-0--2/4-----0-0----0--------------------------------------------------------
 D-------------------2-----0-----------------------------------------------------
 B-------------------------------------------------------------------------------
 D-------------------------------------------------------------------------------
 d--2^0-------------0---2^0-0-3^0-0-5^0-0-2-0-0-3^0-0-0-0-0-2-2-0-3-0-0-x-0-2-0--
 B------3/5-3-3-0-0-0---0-----------------------------0---0----------------------
 G-------------------------------------------------------------------------------
 D-------------------------------------------------------------------------------
 B-------------------------------------------------------------------------------
 D-------------------------------------------------------------------------------
 d--0-0-----------0-----------------------------------0-------------------------
 B------3^0-------0------0------------------------------------------------------
 G-----------0----0--------0------0---2--2--0---2/4-4---2--0--2/3-2-2-2-0----0--
 D-----------0----0-----------2-------------------------------------------2-----
 B------------------------------------------------------------------------------
 D------------------------------------------------------------------------------
 d----------------------------------------------------0-0------------------------
 B--0-----------------------------------------------------0-0--0-----------------
 G--0------0-0-0-3---4--------0--3-4-4-4-4-4-4-4-4-4------0-0--0---------0---2-2-
 D----------------------0--0-----------------------------------0------2----------
 B-------------------------------------------------------------------------------
 D-------------------------------------------------------------------------------

 


 


 w/Fill 1.


 

 
 d-------------------------------------------------------------------------------
 B-------------------------------------------------------------3-3-0-0-3-0-0-5^0-
 G--2-2-0-0--2/4----x-0-x-2--0-----0-0--------0----0---2/4-4-4-------------------
 D------------------------------2---------2---0----------------------------------
 B-------------------------------------------------------------------------------
 D-------------------------------------------------------------------------------
 d-------------------------------
 B--3-3-3-3-5-5-5-5-5-0-0--------
 G----0-0-------------0-0--------
 D-------------------------------
 B-------------------------------
 D-------------------------------

 


 


 Fill 1.:


 


 

 
 d--3--------3--------3--------3-------3-------------------------
 B-----3-----------------3--------3----------6---3---0--0--------
 G---------------------------------------------------0--0--------
 D---------------------------------------------------------------
 B---------------------------------------------------------------
 D---------------------------------------------------------------

 


 


 Pre-Chorus:


 


 Chorus:


 


 Interlude:


 


 2nd solo:


 


 Gtr.I


 

 
 d--0----0--0---------0---0---0--0-----0---0----0----0---0---0--0---0-----0-----
 B-10---12-12-----12-12--10--12-12--------12---10---12--12--12-----10----12^0---
 G--0-----------------0---0---0--0---------0----0----0---0---0------0-----0-----
 D------------------------------------------------------------------------------
 B------------------------------------------------------------------------------
 D------------------------------------------------------------------------------
 d---0--0---0--0--0----0---0--0----0--0----0---0---0-----0--0--0--0----------0--
 B--13-----12-12-10---10--12-12---12-10---12--13-----10-12-12-10-12---12-12-10--
 G---0------0--0--0----0---0--0------------0---0------------0--0--0----------0--
 D------------------------------------------------------------------------------
 B------------------------------------------------------------------------------
 D------------------------------------------------------------------------------

 


 


 [1/2] [1/2]  

 
 d---0--0--0--0--0--0--0--0--0--0--0--0---0--0--0--0--0-------0---0--0------0---
 B--13-13-10-12----12----12-12-12-12-12--12-12-12----12^--12-12--10-12-----12^--
 G------0--0--0-----0-----------0-----0---0-----0-----0-------0---0--0------0---
 D-----13-----------------------------------------------------------------0-----
 B------------------------------------------------------------------------------
 D------------------------------------------------------------------------------
 d----------0--0--0--0--0--0--0--0--0--0--0--2--0-------0----------------0-0----
 B--12--10-12-12-12-10-12-12-12-12-12-12-12-------0--0--0-5^0-3^0-0-0-0--0-0----
 G---0---0--0--0--0--0--0--0--0--0--0--0--0-----------------------0-0-0--0-0----
 D------------------------------------------------------------------------------
 B------------------------------------------------------------------------------
 D------------------------------------------------------------------------------
 d--0-0-3-0-2-2--0-0-0-0-0-0-0-0-0-0-0--0---0----0---0---0------0----0---0--0--
 B--0-0----------0-0-0-0-0-0-0-0-0-0-0--0--10---12--12--12-----10---12--12-12--
 G--0-0---------------------------------0---0----0---0---0------0----0---0--0--
 D--------------------------------------0--------------------------------------
 B-----------------------------------------------------------------------------
 D-----------------------------------------------------------------------------
 d---0---0--0---0---0---0---0---0---0---0---0---0---0---0---0---0---0---0-------
 B--13--13--x--13--15--15--15--15--15--15--15--17--17--17--17--17--17--17-------
 G---0---0--0---0---0---0---0---0---0---0---0---0---0---0---0---0---0---0----5--
 D---------------------------------------------------------------------------5--
 B---------------------------------------------------------------------------5--
 D------------------------------------------------------------------------------
 d--5-----0-0-0--0----0-0---------------------------------------------------5---
 B--5-----0-0-0--0----0-0---3/5--5-3^5^3-----------0-------0-0-------5------5---
 G--5-----0-0-0--0----0-0----------------4-4-2/4-0-------0-0-0---5---5------5---
 D--5---------0--0------0-----------------------------2----0-----5---5----------
 B------------0--------------------------------------------------5---5----------
 D------------------------------------------------------------------------------

 


 


 [1/2]  

 
 d--0---0---0-----0--0--0-----------------------------------0---5^-----0-------
 B--0---0---0-----0--0--0--------0--0-----------0---3^0--0--0------------------
 G--0---0---0-----0--0--0--------------2--0-----0--------0--0--------------5---
 D--0---0---0--------0--0---3/5--------------2-----------------------------5---
 B------0------------------------------------------------------------------5---
 D-----------------------------------------------------------------------------
 d--5--------0--0--0---0------0--0---------------------------------------------5-
 B--5--------0--0--0---0------0--0---3-5-5--3^5^3---3----------------0-0-------5-
 G--5--------0--0--0---0------0--0----------------4----2^4-x-4-------0-0---5---5-
 D--5--------------0---0---------0------------------------------2-0--------5---5-
 B-----------------0-------------------------------------------------------5-----
 D-------------------------------------------------------------------------------

 


 


 [1/4] [1/2] [1/2]  

 
 d----5-0--0--0-----0--0---3--0--2--0--2^----2^----2^-----0--0------
 B----5-0--0--0-----0--0---0--0--0--0---------------------0---------
 G----5-0--0--0-----0--0---0--0--0--0-------------------------------
 D----5-0--0--0--------0--------------------------------------------
 B---------0--0-----------------------------------------------------
 D------------------------------------------------------------------

 


 


 Gtr.II(for 2nd solo):


 


 

 
 d--3-----3-----3----3----3---3------------------------------------------------
 B--3-----3-----3----3----3-------3-----3------6---5--6--5---3-3-----3-3-3-6---
 G--4-----4-----4----4----4-------------4--4-----------------4-4---------------
 D--5-----5-----5----5----5-------------5-------------------------5------------
 B-----------------------------------------------------------------------------
 D-----------------------------------------------------------------------------
 d----------------3-------------------------------------------0---3-----3-------
 B---6----5--3----3-----6----6---5--3---5------5--6---3-3------------0------0-0-
 G---0-------0------------------------------4---------4-4-4-4--------0------0-0-
 D------------------------------------------5---------5-5-5-5-------------------
 B------------------------------------------------------------------------------
 D------------------------------------------------------------------------------
 d--1-----1-----0-----0----3----------------------------------------------------
 B------x-----------3------3---6---6----6----5---3----5----3---5---6-------3----
 G-------------------------4---x-----------------x---------4------------0-------
 D-----------------------------0-----------------0---------5--------------------
 B------------------------------------------------------------------------------
 D------------------------------------------------------------------------------
 d----------------------0---1--------------3---3----0------
 B----5----3-3-5----3-----------------3-3--3---3----0------
 G----0----0-0-0-0----------------0-0-4-4------------------
 D--------------------------------0-0-5-5------------------
 B---------------------------------------------------------
 D---------------------------------------------------------

 


 


 End:


 


 Rain, Rain, gonna fall Ow, rain, Woo, Woo.


 


 

 
 d---5--5-5----5-5--5--5--5------3------------8----0--0--0----3-------3----3----
 B---7--7-7----7-7--7--7--7--0---5----5/8-5/8------1--1--1----0-------0----0----
 G---7--7-7----7-7--7--7--7--0---5-----------------0--0--0----0-------0----0----
 D---7--7-7------7--7-----7--0---5-----------------2--2--2----0-------0----0----
 B-------------------------------------------------3--3--3----x-------x----x----
 D------------------------------------------------------------3-------3----3----


Important: The song above is NOT stored on the Chordie server. The original song is hosted at tabfu.thudspace.net. Chordie works as a search engine and provides on-the-fly formatting. Chordie does not index songs against artists'/composers' will. To remove this song please click here.

This song is displayed as text-only. Transposing and tuning is only available for chordpro-songs.
Rate #1 of 4 versions

Jango Player

Login - add to songbook

SHARE PAGE  



You need to log in to post comments