Guitar Tabs, Chords and Lyrics
Major upgrade!! After one year development the new version of Chordie is now online! Please give feedback.


California  Rusty

Sent: Wednesday, December 17, 1997 8:18 PM
ARTIST - Rusty
SONG - California
ALBUM - Fluke
TUNING - Standard
BEGGINING- This is played at the start once (Light Distortion)
 
 E--2-----5-------------------------------0-------0-------------0----
 B--3--------3-----3----5---5---5--2--------3--------3-----3-------3-
 G--2---2-------2-------2---2------3-----------0--------0------------
 D--0----------------------------------2-----------------------------
 A--0----------------------------------------------------------------
 E-----------------------------------------------------------3------- 

Dmaj.
Hand Mute 1st 4
/ \
 
 ---0-------------------5------------------------------------------
 ------3-----3---------------3-----3----5--5---5--2----------------
 -0-------0---------------------2-------2--2-----------------------
 ---------------4\2--2-----------------------------------5-5-5-5-5-
 --------------------------------------------------------5-5-5-5-5-
 --------------------------------------------------------3-3-3-3-3- 

[F5] 
[F5]  
 
 --------------------------
 --------------------------
 --------------------------
 -5-5-5-5-5-5-5-5-5-5-5----
 -5-5-5-5-5-5-5-5-5-5-5----
 -3-3-3-3-3-3-3-3-3-3-3---- 

VERSE
 
 E---------5-------------------------------0--------0-------------0--
 B--------------2-----2---5--5---5--3---------3--------3-----3-------
 G-----------------3------2--2-------------------0--------0----------
 D-4/2--2-------------------------------2----------------------------
 A-------------------------------------------------------------------
 E-------------------------------------------------------------3-----
 ------0------------------5----------------------------------------
 -3-------3-----3------------2-----2---5--5--5--3------------------
 ---0--------0------------------3------2--2----------7/9--7/9--7/9-
 ------------------4/2-2-----------------------------7/9--7/9--7/9-
 ------------------------------------------------------------------
 ------------------------------------------------------------------ 

Dmaj.
 
 ----------------------------------2------5------------------------
 ----------------------------------3---------3-----3---5--5---5--3-
 ---------------9--7---------------2---2--------2------2--2--------
 -7--5--9----9--------9--7--5--4---0-------------------------------
 ------------------------------------------------------------------
 ------------------------------------------------------------------
 -----0--------0--------------0--------0--------------------5------
 --------3--------3-----0--------3--------3-----3--------------3---
 -----------0--------0--------------0--------0--------------------2
 --2------------------------------------------------4\2--2---------
 ------------------------------------------------------------------
 --------------------------3---------------------------------------
 --------------------0--3-3---0--3-3--------------------------
 -3---5--5---5--3---------------------------------------------
 -----2--2----------------------------------------------------
 -------------------------------------7/9--7/9--7/9--7--5--9--
 -------------------------------------------------------------
 ------------------------------------------------------------- 

Chorus (Heavy Distortion)
[D5] [A5] [E5] [G5] [D5] [A5] [E5] [G5] 
 
 E-------------------------------------------------------------------
 B-------------------------------------------------------------------
 G-7--7----------------------------7------------x--------------------
 D-7--7--7-7-7--2--2-2--5--5-5-5---7---7---2----x-5--5-5-5-5-5-5-5-5-
 A-5--5--7-7-7--2--2-2--5--5-5-5---5---7---2----x-5--5-5-5-5-5-5-5-5-
 E-------5-5-5--0--0-0--3--3-3-3-------5---0----x-3--3-3-3-3-3-3-3-3- 

^Fill^___________________________
\
[A5]  
 
 ---------------------------------- E-----------
 ---------------------------------- B--8-7-5----
 ---------------------------------- G--------7--
 -7-7-7-7-7-7-7-7-7-7-7-7-7-7-7-7-- D-----------
 -7-7-7-7-7-7-7-7-7-7-7-7-7-7-7-7-7 A-----------
 -5-5-5-5-5-5-5-5-5-5-5-5-5-5-5-5-- E----------- 

After 2nd Chorus
[A5] [D5] [C5]  
 
 E-----------------------------
 B-----------------------------
 G----------7--3-3-3-3-3-3-3-3-
 D-----7----7--3-3-3-3-3-3-3-3-
 A-----7--5----5-5-5-5-5-5-5-5-
 E--5-------------------------- 

VERSE 1
I met her while in France
We had a brief romance
She rubbed my arm I rubbed her arm
And then we dirty danced
She move down to LA
She met a dude OK
And sawed her head off with a knife
CHORUS
Now she's gone away......yeah
In a way.......yeah
In a way.......yeah
In a way.......yeah
Went away now
VERSE 2
California's nice
It's snowed there once or twice
Bullets fly across the sky
The path is smooth and tight
I caught one at the bus-stop
He set him in a mint jar
I felt the warm blood role down
Song Order: VERSE 1
CHORUS
VERSE 2
CHORUS
VERSE 1
CHORUS
Ben Hajash
Jay Bilyk
mdbilyk@eidnet.org

Important: The song above is NOT stored on the Chordie server. The original song is hosted at tabfu.thudspace.net. Chordie works as a search engine and provides on-the-fly formatting. Chordie does not index songs against artists'/composers' will. To remove this song please click here.

Text color:
Chord color:
Chord grids: 
Font size:    
Page size: 

A5 C5 D5 E5 F5 G5
Rate #2 of 4 versions

Jango Player

Login - add to songbook

SHARE PAGE  




You need to log in to post comments