Guitar Tabs, Chords and Lyrics
Major upgrade!! After one year development the new version of Chordie is now online! Please give feedback.


Always Somewhere   Scorpions

 
 e-------------3--3--0-0---0----0--0--
 b-----1--1--0--0--0----3---3----1----
 g------0--0-----0--0----2---0----2---
 d-------2--2---------3---2-----------
 a--023-----------------------0-------
 e------------3-----------------------

 


 


 Part B


 

 
 e-------------3--3--0--0--0--0--0----
 b-----1--1--0--3--3-----1--1--1--1---
 g------0--0-----0--0-----2--2--2--2--
 d-------2--2-------------------------
 a--023---------------0---------------
 e------------3-----------------------

 


 


 CHORUS


 

 
 e---------------------------5-5-553------------------------------------------
 b---------------------------5-5-553------------------------------------------
 g--5---------------2-------------------------------5---------------5---------
 d--5-------5-------2---------------3-------5-------5---------5-----5---------
 a--3-------5-------0---------------3-------5-------3---------5-----3---------
 e----------3-----------------------1-------3-----------------3---------------
 ^-^----------rests------------^^
 e-------------------5-5-553---------------------------
 b-------------------5-5-553---------------------------
 g----------2-------------------------------5----------
 d--5-------2---------------3-------5-------5-------5--
 a--5-------0---------------3-------5-------3-------5--
 e--3-----------------------1-------3---------------3--
 ^-^------rests

 


 


 First off, there are no double digit fret numbers, so any that you see mashed


 together are single digits in actuality. I've tried to put some concept of time


 in by leaving space where a note is carried. If you use each character space


 as half a beat (4/4), it should work out about right (except at the ends of


 lines).


 


 Here's how to put the parts together:


 


 Intro


 [AAAAAB]  


 


 Verse 1


 [ABAB]  


 Arrive at seven, the place feels good


 No time to call you today


 Encores till eleven then Chinese food


 Back to the hotel again


 


 Small Solo Break


 [AB]  


 


 Verse 2


 [ABAB]  


 I call your number, the line ain't free


 I'd like to tell you come to me


 And life without you seems like a lost dream


 Love, I can tell you how I feel


 


 Chorus:


 


 Always somewhere


 Miss you where I've been


 I'll be back to love you again


 (2x)


 


 Long Solo Break


 [AAAA]  


 


 Verse 3


 [ABAB]  


 Another morning, another place


 The only day off is far away


 But every city has seen me in the end


 And brings me to you again


 


 Chorus


 


 Outtro


 AA -- Note that the last couple of notes are played differently


 (arpegiate a C9 chord I think - e ---


 [b]g [-3-]-0-


 [d] [-2-] 


 [a]e [-3-]---)


 


 Note: The main effects used seem to be chorus on the verse parts (A & B) and


 heavy distortion on the choruses.


 


 Please let me know if there are any errors, etc.


 


 Enjoy,


 Jeff


 


 my opinions are my own...


 Jeff_Roush@stortek.com


 


 From: csusb@csv.warwick.ac.uk (Jules)


 Subject: TAB: Always Somewhere (Scorpions) - Main Solo


 


 Some time ago I noticed that the version of this song at the Nevada archive


 contains only the tab for the rythym parts of this excellent song.


 


 I have finally got around to tabbing up the main solo break, which comes after


 the first chorus.


 


 I have not tabbed up the shorter breaks over the intro, between the first


 two verses, or over the finale.


 


 ..............................................................................


 


 Main solo break from Always Somewhere by The Scorpions


 Tabbed by Julian R Hall.


 


 

 
 -------------------------------------------------------
 -------------------------------------------------------
 -12b(13)-----10-----------10---------------------------
 ----------------------12-----------12-10----10---------
 -----------------------------------------12----12----\-
 -------------------------------------------------------
 -----------------------------------------------------------------
 -----------------------------------------------------------------
 -----------------------------------------------------------------
 ----------10------10-10bu----10----------------------------------
 --10--12------12---------------12-10-----------------------------
 ------------------------------------12----12\10\8---8-10-8-5---\-
 ------------------------------------------------------------
 ----11-13~-------12-10--------------------------------------
 -12--------------------12-11~-\-----------10----------------
 ------------------------------------10-12----12-10----------
 ---------------------------------12----------------12-10--\-
 ------------------------------------------------------------
 ------------------------------------------12----12----------
 -------------------------------13~------------------10~~~~~~
 -----------12-b-(14)-r-12-----------------------------------
 -----12-----------------------------------------------------
 -8h10-------------------------------------------------------
 ------------------------------------------------------------ 


Important: The song above is NOT stored on the Chordie server. The original song is hosted at tabfu.thudspace.net. Chordie works as a search engine and provides on-the-fly formatting. Chordie does not index songs against artists'/composers' will. To remove this song please click here.

This song is displayed as text-only. Transposing and tuning is only available for chordpro-songs.
Rate #9 of 14 versions

Login - add to songbook

SHARE PAGE  




You need to log in to post comments