Guitar Tabs, Chords and Lyrics
Server problems seems to be fixed. Chordie has been experiencing problems with songs disappearing. These issues now seems to be fixed, but still verifying the fix. If you find anything strange, please email admin@chordie.com.


Cindy's on Methadone  Screeching Weasel

Date: Tue, 9 Apr 1996 02:27:32 -0400
Subject: CRD: Screeching Weasel, "Cindy's on Methadone"
"Cindy's On Methadone"
performed by Screeching Weasel
written by Ben Weasel
(C) 1991 Screeching Weasel
from the Lookout! Records release My Brain Hurts (LK 50 LP/CS/CD)
transcribed by Mike Ripplinger (openface@aol.com)
***
["Cindy's On Metbadone"] 
[Intro] 
[A] Cindy's on [D]methadone, she's [B]through with the sy[E]ringe
A D B E (with slides from D#)
Cindy's on methadone, she's off of heroin
[Verse] 
[A] Cindy is [D]doing well, we're [B]glad to have her [E]home
[A] She slept in [D]vomit, now she [B]sleeps on metha[E]done
[Cborus] 
But she [D]stopped ripping [A]off her [E]neighbors
[D]Stopped taking [A]change from [E]strangers
[D]Stopped shooting [A]needles [E]full of [D]dreams into her [E]arms
[Verse] 
Cindy's on methadone, we see it in her eyes
Sounds so much better but it's just another high
[Cborus] 
But she stopped calling at three-thirty
Stopped looking thin and dirty
Stopped screaming bloody murder when she got cut off
[ A / D / B / E ] x2 (with lead A)
Why don't you [D]stop with your [A]fake so[E]lutions
[D]Stop covering [A]up the [E]truth and
[D]Stop trying to [A]make things [E]smooth and
[D]Stop acting [A]like she's [E]stupid
[ A / D / B / E ] x4 to end (with lead B)
***
Lead A
 
 E--9-----9-10--9-----9-----9-10--9-----9-----9-10--9-----
 B-----10---------12-----10---------12-----10---------12--
 G--------------------------------------------------------
 D--------------------------------------------------------
 A--------------------------------------------------------
 E--------------------------------------------------------
 E--9-----9-10--9--------
 B-----10---------12-10--
 G-----------------------
 D-----------------------
 A-----------------------
 E----------------------- 

Lead B
 
 E--9-----9-10--9-----9-----9-10--9-----9-----9-10--9-----
 B-----10---------12-----10---------12-----10---------12--
 G--------------------------------------------------------
 D--------------------------------------------------------
 A--------------------------------------------------------
 E--------------------------------------------------------
 E--9-----9-10--9-----9-----9-10--9-----9-----9-10--9-----
 B-----10---------12-----10---------12-----10---------12--
 G--------------------------------------------------------
 D--------------------------------------------------------
 A--------------------------------------------------------
 E--------------------------------------------------------
 E--9-----9-10--9----12-10-9----10-9----------
 B-----10---------12---------12------10-9-10--
 G--------------------------------------------
 D--------------------------------------------
 A--------------------------------------------
 E-------------------------------------------- 


Important: The song above is NOT stored on the Chordie server. The original song is hosted at tabfu.thudspace.net. Chordie works as a search engine and provides on-the-fly formatting. Chordie does not index songs against artists'/composers' will. To remove this song please click here.

Text color:
Chord color:
Chord grids: 
Font size:    
Page size: 

A B D E
Rate #2 of 2 versions

Login - add to songbook

SHARE PAGE  



You need to log in to post comments