Guitar Tabs, Chords and Lyrics
Major upgrade!! After one year development the new version of Chordie is now online! Please give feedback.


Abuse Me  Silverchair

Author/Artist: silverchair
Title: Abuse Me
Album: Freak Show
Transcribed by: Zack Hill
Email: ppredator@hotmail.com
This song is just a few simple chords. The beginning picking pattern doesn't ne
cessarily have to be followed.
Just play around with it for a while to get used to it. After the solo then you play
the bridge again and alternate those two different parts 8X. Then end on the
intro.
Written: 3/9/97
***TUNING*** Dropped D
 
 ------------------------------------------------------------------------------
 ------------------------------------------------------------------------------
 --------------6----------------6-------------------2-------------------2------
 --------0-------0--------0--------0-------------0-----0-----------0------0----
 -----7-----7----------7-----7--------7-------3-----------3-----3-----3-----3--
 --7----------------7----------------------3-----------------3-----------------

*Intro 2X*
 
 --0--0--0--0----0-- ---0--0--0------------------------------------------------
 --0--0--0--0----0-- ---0--0--0------------------------------------------------
 --2--2--2--2/4--4-- ---4--4--4------------------------------------------------
 --0--0--0--0----0-- ---0--0--0------------------------------------------------
 --3--3--3--3/5--5-- ---5--5--5------------------------------------------------
 --3--3--3--3/5--5-- ---5--5--5------------------------------------------------

*Verse 4X*
 
 --0--0--0--0--0--0--0--0--0--0--0--0--0---0-0--0--0--0--0--0--0--0--0--0--0---
 --0--0--0--0--0--0--0--0--0--0--0--0--0---0-0--0--0--0--0--0--0--0--0--0--0---
 --6--6--6--6--6--6--6--6--6--6--6--6--6\2-2-2--2--2--2--0--0--2--2--2--2--2---
 --0--0--0--0--0--0--0--0--0--0--0--0--0---0-0--0--0--0--0--0--0--0--0--0--0---
 --7--7--7--7--7--7--7--7--7--7--7--7--7\3-3-3--3--3--3--3--3--3--3--3--3--3---
 --7--7--7--7--7--7--7--7--7--7--7--7--7\3-3-3--3--3--3--3--3--3--3--3--3--3---

*Chorus, "C'mon abuse me more..."
 
 --0-- --0---0--0--0--0--------------------------------------------------------
 --0-- --0---0--0--0--0--------------------------------------------------------
 --2-- --1---1--1--1--1--------------------------------------------------------
 --0-- --0---0--0--0--0--------------------------------------------------------
 --3-- --2---2--2--2--2--------------------------------------------------------
 --3-- --2---2--2--2--2--------------------------------------------------------

------------------------------------------------------------------------------ ------------------------------------------------------------------------------ ------------------------------------------------------------------------------ ------------------------------------------------------------------------------ ------------------------------------------------------------------------------ ------------------------------------------------------------------------------
*At end of second chorus, repeat #1, but palm mute longer*
 
 ------------------------------------------------------------------------------
 ------------------------------------------------------------------------------
 --2--2--2--------------9-9/11-11-11/13-13-13----2--2--2-----------------------
 --2--2--2---3--0--0----0-0----0--0-----0--0-----2--2--2---3--0--0-------------
 --0--0--0---3--0--0----7-7/9--9--9/-11-11-11----0--0--0---3--0--0-------------
 --0--0--0---3--0--0-----------------------------0--0--0---3--0--0-------------

*Bridge, "throw the sailors overboard"
 
 --------------------------------------------------------------- --------------
 --------------------------------------------------------------- --------------
 --5-5/7-7-7--9--7----2--2--2-------------9-9/11-11-11/13-13-13- --------------
 --0-0---0-0--0--0----2--2--2---3--0--0---0-0----0--0-----0--0-- --------------
 --3-3/5-5-5--7--5----0--0--0---3--0--0---7-7/9--9--9/-11-11-11- --------------
 ---------------------0--0--0---3--0--0------------------------- --------------
 ------------------------------------------------------------------------------
 ------------------------------------------------------------------------------
 --2--2--2---------------------------------------------------------------------
 --2--2--2---3--0--0----0--0--0--0------3-3--0-----0-0-0-0-0-0-0---------------
 --0--0--0---3--0--0----0--0--0--0------3-3--0-----0-0-0-0-0-0-0---------------
 --0--0--0---3--0--0----0--0--0--0------3-3--0-----0-0-0-0-0-0-0---------------
 ---PM----- "overboard" ---PM-------- then chorus
 ------------------------------------------------------------------------------
 ------------------------------------------------------------------------------
 ------------------------------------------------------------------------------
 ------------------------------------------------------------------------------
 ------------------------------------------------------------------------------
 ------------------------------------------------------------------------------

*for solo, just play chorus w/flanger or phaser*
From smclaren@escape.ca Sun May 4 11:09:03 1997
Date: Mon, 07 Apr 1997 22:48:22 -0500
From: Scott McLaren
To: guitar@olga.net
Subject: TAB: abuse me by: silverchair
Song-Abuse Me
Band-silverchair
Album-Freak Show
Tabbed by Scott McLaren
*TUNING*
Dropped-D
KEY
/-slide up
\-slide down
PM-palm mute
p-pull off
_-hold note


INTRO
 
 E ------------------------------------------------------------------
 B ------------------------------------------------------------------
 G ---------6---------------6---------------2-0-------------2--------
 D -----0-----0---------0-----0----------0------0---------0---0------
 A ---7---7-----7-----7---7-----7-----3----3------3-----3-------3----
 D -7-------------7---------------7\3-----------------3-----------3/-
 E ---------------------------------------------------
 B ---------------------------------------------------
 G -------6---6-0-------------6-----------2---2-0-----
 D ---------0-----0---------0---0---------------------
 A -----7-----------7-----7-------7-----3---3-----3---
 D ---7-----------------7-----------7\3-------------3- 

Verse (Need to ask a question.....)
 
 E -0-0-0--0-0-0---0-0-0--0-0-0---0-0-0--0-0-0---0-0-0--0-0-0---0-0-0-
 B -0-0-0--0-0-0---0-0-0--0-0-0---0-0-0--0-0-0---0-0-0--0-0-0---0-0-0-
 G -2-2-2--4-4-4---2-2-2--4-4-4---2-2-2--4-4-4---2-2-2--4-4-4---4-4-6-
 D -3-3-3--5-5-5---3-3-3--5-5-5---3-3-3--5-5-5---3-3-3--5-5-5---5-5/7-
 A -3-3-3--5-5-5---3-3-3--5-5-5---3-3-3--5-5-5---3-3-3--5-5-5---5-5/7-
 D -3-3-3--5-5-5---3-3-3--5-5-5---3-3-3--5-5-5---3-3-3--5-5-5---5-5/7- 

CHORUS 1
 
 E -0-0-0-0-0-0-0-0-0-0-0-0-0-0-0-0---0-0-0-0-0-0-0-0-0-0-0-0-0-0-
 B -0-0-0-0-0-0-0-0-0-0-0-0-0-0-0-0---0-0-0-0-0-0-0-0-0-0-0-0-0-0-
 G -6-6-6-6-6-6-6-6-6-6-6-6-6-6-6-6---2-2-2-2-2-2-2-2-2-2-2-2-2-2- 2x
 D -7-7-7-7-7-7-7-7-7-7-7-7-7-7-7-7---3-3-3-3-3-3-3-3-3-3-3-3-3-3-
 A -7-7-7-7-7-7-7-7-7-7-7-7-7-7-7-7---3-3-3-3-3-3-3-3-3-3-3-3-3-3-
 D -7-7-7-7-7-7-7-7-7-7-7-7-7-7-7-7---3-3-3-3-3-3-3-3-3-3-3-3-3-3-
 E -------------
 B -------------
 G -------------
 D --2--2-2-2-2-
 A --2--2-2-2-2-
 D --2--2-2-2-2- 

PM_____
Verse (Well, I don't think you like me.....)
 
 E -0-0-0--0-0-0---0-0-0--0-0-0---0-0-0--0-0-0---0-0-0--0-0-0---0-0-0-
 B -0-0-0--0-0-0---0-0-0--0-0-0---0-0-0--0-0-0---0-0-0--0-0-0---0-0-0-
 G -2-2-2--4-4-4---2-2-2--4-4-4---2-2-2--4-4-4---2-2-2--4-4-4---4-4-6-
 D -3-3-3--5-5-5---3-3-3--5-5-5---3-3-3--5-5-5---3-3-3--5-5-5---5-5/7-
 A -3-3-3--5-5-5---3-3-3--5-5-5---3-3-3--5-5-5---3-3-3--5-5-5---5-5/7-
 D -3-3-3--5-5-5---3-3-3--5-5-5---3-3-3--5-5-5---3-3-3--5-5-5---5-5/7- 

CHORUS 1
 
 E -0-0-0-0-0-0-0-0-0-0-0-0-0-0-0-0---0-0-0-0-0-0-0-0-0-0-0-0-0-0-
 B -0-0-0-0-0-0-0-0-0-0-0-0-0-0-0-0---0-0-0-0-0-0-0-0-0-0-0-0-0-0-
 G -6-6-6-6-6-6-6-6-6-6-6-6-6-6-6-6---2-2-2-2-2-2-2-2-2-2-2-2-2-2- 4x
 D -7-7-7-7-7-7-7-7-7-7-7-7-7-7-7-7---3-3-3-3-3-3-3-3-3-3-3-3-3-3-
 A -7-7-7-7-7-7-7-7-7-7-7-7-7-7-7-7---3-3-3-3-3-3-3-3-3-3-3-3-3-3-
 D -7-7-7-7-7-7-7-7-7-7-7-7-7-7-7-7---3-3-3-3-3-3-3-3-3-3-3-3-3-3-
 E ---------------------------------
 B ---------------------------------
 G ---------------------------------
 D -2-2-2-2-2-2-2-2-2-2-2-2-2-2-2-2-
 A -2-2-2-2-2-2-2-2-2-2-2-2-2-2-2-2-
 D -2-2-2-2-2-2-2-2-2-2-2-2-2-2-2-2- 

PM_____________________________
BRIDGE 1 (Throw the sailors overboard....)
 
 E -------------------------------------
 G -------------------------------------
 B ------------------------------------- 2x
 D -7--7-7-7-3-3---0--0-0-0-0-0-0-0-0-0-
 A -7--7-7-7-3-3---0--0-0-0-0-0-0-0-0-0-
 D -7--7-7-7-3-3---0--0-0-0-0-0-0-0-0-0-
 E ----------------------------------------------------
 G ----------------------------------------------------
 B ----------------------------------------------------
 D -7--7-7-7-3-3---0--0-0-0-0-0-0-0-0-0--7--7-7-7-3--0-
 A -7--7-7-7-3-3---0--0-0-0-0-0-0-0-0-0--7--7-7-7-3--0-
 D -7--7-7-7-3-3---0--0-0-0-0-0-0-0-0-0--7--7-7-7-3--0-
 E -----------------------------------------------------------
 B -----------------------------------------------------------
 G -----------------------------------------------------------
 D -0-0-0-0-0-7-7-7-7-7--3-3-0--3-3-0--3-3-0---0-0-0-0-0-0-0--
 A -0-0-0-0-0-7-7-7-7-7--3-3-0--3-3-0--3-3-0---0-0-0-0-0-0-0--
 D -0-0-0-0-0-7-7-7-7-7--3-3-0--3-3-0--3-3-0---0-0-0-0-0-0-0-- 

PM_____
CHORUS 1 (2 guitars)
 
 E -0-0-0-0-0-0-0-0-0-0-0-0-0-0-0-0---0-0-0-0-0-0-0-0-0-0-0-0-0-0-
 B -0-0-0-0-0-0-0-0-0-0-0-0-0-0-0-0---0-0-0-0-0-0-0-0-0-0-0-0-0-0-
 G -6-6-6-6-6-6-6-6-6-6-6-6-6-6-6-6---2-2-2-2-2-2-2-2-2-2-2-2-2-2- 4x
 D -7-7-7-7-7-7-7-7-7-7-7-7-7-7-7-7---3-3-3-3-3-3-3-3-3-3-3-3-3-3-
 A -7-7-7-7-7-7-7-7-7-7-7-7-7-7-7-7---3-3-3-3-3-3-3-3-3-3-3-3-3-3-
 D -7-7-7-7-7-7-7-7-7-7-7-7-7-7-7-7---3-3-3-3-3-3-3-3-3-3-3-3-3-3-
 E ---------------------------------
 B ---------------------------------
 G ---------------------------------
 D -2-2-2-2-2-2-2-2-2-2-2-2-2-2-2-2-
 A -2-2-2-2-2-2-2-2-2-2-2-2-2-2-2-2-
 D -2-2-2-2-2-2-2-2-2-2-2-2-2-2-2-2- 

PM_____________________________
Guitar 2
 
 E ---------------------------------------------------------------------
 B ---------------------------------------------------------------------
 G ---------------------------------------------------------------------
 D -----7-----------7---------7--------------3---------3-----3-----3----
 A ---7---7---7---7---7-----7---7---7-7/---3---3---3-------3---3-----3--
 D -7-------7---7---------7-------7------3-------3---3---3-------3------ 

SOLO __________
 
 E -12-12^(1/2)--12--12\---------------------------------------------------
 B ----------------------1--1/6--5--5/6--6/8--10-10\--8/12--13/14-13----13-
 G ------------------------------------------------------------------------
 D ------------------------------------------------------------------------
 A ------------------------------------------------------------------------
 D ------------------------------------------------------------------------
 E ------------------------------------9-10-9--10-12-12p10\9-10------------
 B 13--12^(1/2)12-12\10--10\5--8--8-10-------------------------------------
 G -------------------------------------------------------------7-7\5-4-2\1
 D ------------------------------------------------------------------------
 A ------------------------------------------------------------------------
 D ------------------------------------------------------------------------ 

BRIDGE 2 (Throw the sailors overbaord.....)
 
 E -------------------------------------
 G -------------------------------------
 B ------------------------------------- 6x
 D -7--7-7-7-3-3---0--0-0-0-0-0-0-0-0-0-
 A -7--7-7-7-3-3---0--0-0-0-0-0-0-0-0-0-
 D -7--7-7-7-3-3---0--0-0-0-0-0-0-0-0-0-
 E ---------------------------------------------------------------
 B ---------------------------------------------------------------
 G ---------------------------------------------------------------
 D -0-0-0-0-0-3-3-0--0-0-0-0-3-3-0--3-3-0--3-3-0---0-0-0-0-0-0-0--
 A -0-0-0-0-0-3-3-0--0-0-0-0-3-3-0--3-3-0--3-3-0---0-0-0-0-0-0-0--
 D -0-0-0-0-0-3-3-0--0-0-0-0-3-3-0--3-3-0--3-3-0---0-0-0-0-0-0-0-- 

PM_____ PM_____
OUTRO
 
 E ----------------------------------------------------
 B ----------------------------------------------------
 G ---------6----------------6-----------2---2--0------
 D -----0-----0----------0-----0-----------0-----------
 A ---7---7-----7------7---------7-----3-----------3---
 D -7--------------(7)-----7-------7-3---------------3- 

=ScOtT McLaReN================
EFnet IRC: koRn
=smclaren@escape.ca===========
From vermills@cfw.com Sun May 4 11:09:15 1997
Date: Sun, 13 Apr 1997 22:59:22 -0700
From: Stephen T Vermillion
To: guitar@olga.net
Subject: tabs. silverchair "Abuse Me"
"Abuse Me" by Silverchair.
music by Daniel Johns
transcribed by Matt Vermillion (vermlls@cfw.com)
This is a really cool song off Silverchairs new album and it's really
easy to play
 
 CHORDS USED: -5- -1- -3- -0- -0- -0-
 -5- -1- -3- -0- -0- -0-
 -6- -2- -4- -5- -0- -0-
 -7- -3- -5- -5- -5- -7-
 -7- -3- -5- -3- -5- -7-
 -5- -1- -3- -0- -3- -5- 

_________________________________________________________________________________
Intro: use these chords and listen to the cd its really simple
[-5-] [-1-]  
[-5-] [-1-]  
 
 -6- -2- ---The Intro is all picking so listen to the cd---

[-7-] [-3-]  
[-7-] [-3-]  
_[-5-]______[-1-]__________________________________________________________________________
riff 1
 
 e-3-3-3-3-\-5---3-3-3-3-\-5-
 B-3-3-3-3-\-5---3-3-3-3-\-5-
 G-4-4-4-4-\-6---4-4-4-4-\-6-
 D-5-5-5-5-\-7---5-5-5-5-\-7-
 A-5-5-5-5-\-7---5-5-5-5-\-7-
 E-3-3-3-3-\-5---3-3-3-3-\-5- 

____________________________________________________________________________________
chorus
 
 e-5-5-5-5-5-5-5-5-5-\-1-1-1-1-1-1-1-1-\-5-5-5-5-5-5-5-5-\-1-1-1-1-1-1-1-1-1-
 B-5-5-5-5-5-5-5-5-5-\-1-1-1-1-1-1-1-1-\-5-5-5-5-5-5-5-5-\-1-1-1-1-1-1-1-1-1-
 G-6-6-6-6-6-6-6-6-6-\-2-2-2-2-2-2-2-2-\-6-6-6-6-6-6-6-6-\-2-2-2-2-2-2-2-2-2-
 D-7-7-7-7-7-7-7-7-7-\-3-3-3-3-3-3-3-3-\-7-7-7-7-7-7-7-7-\-3-3-3-3-3-3-3-3-3-
 A-7-7-7-7-7-7-7-7-7-\-3-3-3-3-3-3-3-3-\-7-7-7-7-7-7-7-7-\-3-3-3-3-3-3-3-3-3-
 E-5-5-5-5-5-5-5-5-5-\-1-1-1-1-1-1-1-1-\-5-5-5-5-5-5-5-5-\-1-1-1-1-1-1-1-1-1- 

____________________________________________________________________________________
riff2 ("throw the sailors overboard"part as near as i can figure if i am
wrong please EMAIL me with corrections, all the rest is right
though).vermlls@cfw.com
 
 e-0-0-0--0-0-0--000000-
 B-0-0-0--0-0-0--000000-
 G-5-5-5--0-0-0--000000-
 D-5-5-5--5-5-5--777777-
 A-3-3-3--5-5-5--777777-
 E-0-0-0--3-3-3--555555- 

_________________________________________________________________________________
Lyrics:
need to ask a question
calling out my name
nothing seems to bother me
wish i had a clue
C'mon abuse me more i like it
well i don't think you like me
well i hate you as well
no one seems to like you
wish i couldn't tell
C'mon abuse me more i like it
C'mon keep talking 'cause its true
Throw the sailors overboard
Throw the sailors overboard, overboard
From bgibson@ewa.net Mon May 12 13:58:22 1997
Date: Thu, 08 May 1997 21:05:58 +0000
From: Bill Gibson
To: guitar@olga.net
Subject: Tab: 'Abuse Me' by 'Silverchair'
Abuse Me
 
 --------By Silverchair, Written By Daniel Johns, Tabbed by Abe Gibson

Off of the CD Freak Show, Live Performance, and MTV.
In Dropped-D like every song of theirs.
I tried many times to figure out this awesome song but I had no luck
for some reason. Finally I saw them live in Seattle, which rocked, and
saw some kind of MTV production that had them in concert. I taped the
MTV thingy and watched it about 20 times to get it right and then I used
my ear, which isn't great, off the CD to get it 100% right. I think it
is pretty accurate. But anyways:
INTRO: I think they're using a phaser.
Aadd9? Fmaj.11?
 
 e:------------------------------------------------------------------
 B:------------------------------------------------------------------
 G:---------6--------------6----------------2-0------------2---------
 D:-----0-----0-------0------0----------0-------0--------0---0-------
 A:---7---7-----7---7---7------7------3---0-------3----3-------3-----
 D:-7-------------7--------------7\-3----------------3-----------3/--

Aadd9? Fmaj.11?
 
 e:-------------------------------------------------
 B:-------------------------------------------------
 G:-----6---6-0-----------6------------2---2-0------
 D:-------0-----0-------0---0-----------------------
 A:---7-----------7---7-------7------3---3-----3----
 D:-7---------------7-----------7\-3-------------3-- 

VERSE: Play it 4 times each verse. END OF VERSE:
Fadd? G5 Gadd? Gadd? A5
 
 e:--------------------- e:-----------
 B:--------------------- B:-----------
 G:-2--2--2--2-------4-- (cont.) G:-4--4------
 D:-3--3--3--3/(5)---5-- D:-5--5/(7)--
 A:-3--3--3--3/(5)---5-- A:-5--5/(7)--
 D:-3--3--3--3/(5)---5-- D:-5--5/(7)-- 

1ST CHORUS:
[A5] [F5]  
 
 e:---------------------------------------------------------------
 B:---------------------------------------------------------------
 G:---------------------------------------------------------------
 D:-----7---------7-------7-----7\-----3---------3-------3-----3/-
 A:---7---7---7-----7---7---7--------3---3---3-----3---3---3------
 D:-7-------7---7-----7-------7----3-------3---3-----3-------3----

A5 F5 E7 Fadd?
 
 e:------------------------------------------------------------------
 B:------------------------------------------------------------------
 G:-------------------------------------------------1--1-1-1-1-4-4-4-
 D:-----7-------7-------7-------7--------3-----3----0--0-0-0-0-3-3-3-
 A:---7---7---7---7---7---7---7---7\---3---3-----3--2--2-2-2-2-3-3-3-
 D:-7-------7-------7-------7--------3-------3------2--2-2-2-2-3-3-3- 

P.M.~~~~~~~
2ND CHORUS:
[A5] [F5]  
 
 e:---------------------------------------------------------------
 B:---------------------------------------------------------------
 G:---------------------------------------------------------------
 D:-----7-------7-------7--------------3---------3-----3-----3----
 A:---7---7---7---7---7---7---7-7\---3---3---3-------3---3-----3/-
 D:-7-------7-------7-------7------3-------3---3---3-------3------

[A5] [F5]  
 
 e:---------------------------------------------------------------
 B:---------------------------------------------------------------
 G:---------------------------------------------------------------
 D:-----7-------7-------7--------------3-------3-------3-------3--
 A:---7---7---7---7---7---7---7-7\---3---3---3---3---3---3---3----
 D:-7-------7-------7-------7------3-------3-------3-------3------

[F5] [E7]  
 
 e:----------------------------------------
 B:----------------------------------------
 G:---------------1--1-1-1-1-1-1-1-1-1-1---
 D:-----3-----3---0--0-0-0-0-0-0-0-0-0-0-0-
 A:---3---3----3--2--2-2-2-2-2-2-2-2-2-2-0-
 D:-3-------3-----2--2-2-2-2-2-2-2-2-2-2--- 

P.M.~~~~~~~~~~~~~~~~~~~
BRIDGE: Ok, the first Riff is the main one. The other two are fills
played in the background after the main one.
[A5] [F5] [D5] [F5] [G5] [A5] [C5] [A5] [F5] [C5]  
 
 e:---------------- --------------------------- ---------------------
 B:---------------- --------------------------- ---------------------
 G:---------------- -7-7-7-7/12-12-12-12/14-14- -5/7-7-7-7/9-9-9-9\7-
 D:-7--7-7-7--3--0- --------------------------- ---------------------
 A:-7--7-7-7--3--0- -9-9-9-9/10-10-10-10/12-12- -3/5-5-5-5/7-7-7-7\5-
 D:-7--7-7-7--3--0- --------------------------- --------------------- 

The end of the Bridge goes like:
[D5] [F5] [D5] [F5] [D5] [F5] [D5] [F5] [D5]  
 
 e:-------------------------------------------------------------
 B:-------------------------------------------------------------
 G:-------------------------------------------------------------
 D:-0-0-0-0-3-3-0---0-0-0-0-3-3-0---3-3-0--3-3-0---0-0-0-0-0-0--
 A:-0-0-0-0-3-3-0---0-0-0-0-3-3-0---3-3-0--3-3-0---0-0-0-0-0-0--
 D:-0-0-0-0-3-3-0---0-0-0-0-3-3-0---3-3-0--3-3-0---0-0-0-0-0-0-- 

P.M.~~~~~~~
3RD CHORUS:
[A5] [F5]  
 
 e:-----------------------------------------------------------------
 B:-----------------------------------------------------------------
 G:-----------------------------------------------------------------
 D:-----7-------7-------7-------7--------3---------3-----3-----3----
 A:---7---7---7---7---7---7---7---7\---3---3---3-------3---3----3---
 D:-7-------7-------7-------7--------3-------3---3---3-------3------ 

SOLO:
 
 e:-12^--12--12\------------------------------------------------------
 B:--------------1/6--5--6--8--10\--8/12-13/14-13---13--13--12^\10-\5-
 G:-------------------------------------------------------------------
 D:-------------------------------------------------------------------
 A:-------------------------------------------------------------------
 D:-------------------------------------------------------------------
 e:---------9-10--9-10--12p11p10\9-10---------------
 B:-8-8--10-----------------------------------------
 G:------------------------------------7-\5--4-2\1--
 D:-------------------------------------------------
 A:-------------------------------------------------
 D:------------------------------------------------- 

OUTRO:
Aadd9? Fmaj.11?
 
 e:-------------------------------------------------
 B:-------------------------------------------------
 G:---------6-------------6------------2---2-0------
 D:-----0-----0-------0-----0------------0----------
 A:---7---7-----7---7---------7------3---------3----
 E:-7-------------7-----7-------7--3--------------3- 

Whew! Well I'm proud of my self. I hope it helps but I'm not too sure
about that solo. Well, Good Luck.

Important: The song above is NOT stored on the Chordie server. The original song is hosted at tabfu.thudspace.net. Chordie works as a search engine and provides on-the-fly formatting. Chordie does not index songs against artists'/composers' will. To remove this song please click here.

Text color:
Chord color:
Chord grids: 
Font size:    
Page size: 

A5 C5 D5 E7 F5 G5
Rate #1 of 6 versions

Jango Player

Login - add to songbook

SHARE PAGE  




You need to log in to post comments