Guitar Tabs, Chords and Lyrics
Major upgrade!! After one year development the new version of Chordie is now online! Please give feedback.


Homeward Bound  Simon & Garfunkel

Homeward Bound (by Simon & Garfunkel)
Capo on 3rd Fret.
Intro
 
 T----- ------h-p--------------------- ----------------- -----------------
 ------ -0---0-1-0-------------------- ----------------- -----------------
 A----- -0---0-2-0--2--0-----0---0--0- ----------------- -----------------
 ------ ------------3--2--2--0h2-0--0- ---0---0---0---0- ---0---0---0---0-
 B----- ------------------3----------- ----------------- -----------------
 ------ ----------------------------3- -3---3---3---3--- -2---2---2---2--- 

Im sitting.... ticket....
[Am]  
 
 T----- ----------------- ----------------- -----------------0---------------
 ------ ----------------- ----------0---0-- -1---------1---------------1-----
 A----- ----------------- ------------0---0 -------2---------------2---------
 ------ ---0---0---0---0- ---2---2---2---2- -----2-------2-------2-------2---
 B----- ----------------- ----------------- -0-------0-------0-------0-------
 ------ -1---1---1---1--- -0---0---0---0--- --------------------------------- 

destination Mmm________________ On a tour of one night stands
[F] [G]  
 
 T----- -----------------1--------------- -----------------3---------------
 ------ -1---------1---------------1----- -0---------0---------------0-----
 A----- -------2---------------2--------- -------0---------------0---------
 ------ -----3-------3-------3-------3--- -----0-------0-------0-------0---
 B----- --------------------------------- ---------------------------------
 ------ -1-------1-------1-------1------- -3-------3-------3-------3------- 

My suitcase and guitar in hand and every stop is neatly planned for a
[G]  
 
 T----- -----------------
 ------ -----O---/-------
 A----- --------/--------
 ------ -------/---------
 B----- ------/---O------
 ------ ----------------- 

poet and .....
Verse 1:
I'm sitting in the railway station, got a
Ticket for my destination
Mm_________
On a tour of one night stands, my
Suitcase and guitar in hand
And every stop is neatly planned
For a poet and a one man band
Chorus : (Strum Chords)
[G]Homeward [C]bound, I wish I [G]was,
Homeward [C]bound.
G * *(w/Fill 1)
Home, where my thoughts escaping,
G *
Home, where my music's playing,
G * D7
Home, where my love lies waiting, silently for me.
Verse 2:
Every day's an endless stream of
Cigarettes and magazines
Mmm_______
Each town looks the same to me, the
Movies and the factories
And every strangers face I see
Reminds me that I long to be.
Chorus:
Verse 3:
Tonight I'll sing my songs again, I'll
Play the game and pretend
Mmm________
But all my words come back to me in
Shades of mediocrity
Like emptiness in harmony
I need someone to comfort me.
Chorus :
Outro:
 
 T----- ----------------- ----------------- ----------------- ---
 ------ ----------------- ----------------- ----------------- ---
 A----- ----------------- ----------------- ----------------- ---
 ------ ---0---0---0---0- ---0---0---0---0- ---0---0---0---0- ---
 B----- ----------------- ----------------- ----------------- ---
 ------ -3---3---3---3--- -2---2---2---2--- -1---1---1---1--- -3-
 T----- ------h-p----------------------
 ------ -0---0-1-0---------------------
 A----- -0---0-2-0--2--0-----0---0--0--
 ------ ------------3--2--2--0h2-0--0--
 B----- ------------------3------------
 ------ ----------------------------3-- 

Fill 1:
 
 T----- ---------
 ------ ---------
 A----- ---------
 ------ ---------
 B----- -0-------
 ------ ---3-1-0- 

Meticulously transcribed by Richard Kent & Jim Ardouin

Important: The song above is NOT stored on the Chordie server. The original song is hosted at tabfu.thudspace.net. Chordie works as a search engine and provides on-the-fly formatting. Chordie does not index songs against artists'/composers' will. To remove this song please click here.

Text color:
Chord color:
Chord grids: 
Font size:    
Page size: 

Am C F G
Rate #5 of 7 versions

Jango Player

Login - add to songbook

SHARE PAGE  




You need to log in to post comments