Guitar Tabs, Chords and Lyrics
Major upgrade!! After one year development the new version of Chordie is now online! Please give feedback.


I Remember You   Skid Row

 
 E---3---3------3--------------0-------0------------ --------------------------
 B---3-----3-3-----3--------3-----3-3-------0-3-0--- --------------------------
 G---0-----0-0--------------0-----0-0-----0-------0- --------------------------
 D---0-----0-0-----------0--2-----2-2--------------- --------------------------
 A---2-----2-2-------0-2----3-----3-3--------------- --------------------------
 E---3---------------------------------------------- --------------------------

 


 


 End 1 (acoustic) End 1 (electric


 p p


 


 

 
 E--2--x-2------3-2------0-------- --------------------------------------------
 B--3--x-3----------3----3-------- -7----7------8-7----5--\--------------------
 G--2--x-2----2-------2--0-------- -7----7----7-----7--5--\--------------------
 D--0--x-0--0------------2-------- -7----7--7----------5--\--------------------
 A-----------------------3------2- -5--5-5-------------3--\--------------------
 E-------------------------------- --------------------------------------------
 p p--------- slide down

 


 End 2 (acoustic)


 p h p


 


 

 
 E--2--x-2------3-2-------0----0--------- -2--x-2------3-2-----0--0--0---------
 B--3--x-3----3-----3-----3----3--------- -3--x-3----3-----3---3--3--3---------
 G--2--x-2--2---------2---0----0-------0- -2--x-2--2---------2-0--0--0---------
 D--0--x-0--------------0-2--2-2---0-2--- -0--x-0--------------2--2--2---------
 A------------------------3----3--------- ---------------------3--3--3--2------
 E--------------------------------------- -------------------------------------

 


 


 End 2 (electric)


 p s p


 


 

 
 E--------------------------------------- -------------------------------------
 B--7----7------8-7-------5----5--------- -7----7------8-7-----5--5--5---------
 G--7----7----7-----7-----5----5--------- -7----7----7-----7---5--5--5---------
 D--7----7--7---------7---5----5-------5- -7----7--7---------7-5--5--5---------
 A--5--5-5----------------3--3-3---5-7--- -5--5-5--------------3--3--3--2------
 E--------------------------------------- -------------------------------------
 p p.m.------- p p p.m.-------

 


 


 Chorus: (electric)


 [s] [s]  


 

 
 E-----------------------------------------------------------------------------
 B-----------------------------------------------------------------------------
 G---------------------7---x-7---------7----9---x-9--9----5--------------------
 D--5---x-5------------7---x-7-----7-9---9--9---x-9--9----5--------------------
 A--5---x-5---------5--5---x-5--5-----------7---x-7--7----3-------2-3-2-0------
 E--3---x-3--3--5-7------------------------------------------------------------

 


 p p p (repeat twice)


 


 End Chorus:


 


 

 
 E-----------------------------------------------------------------------------
 B-----------------------------------------------------------------------------
 G---------------------5---x-5-----5---------------------5---x-5---------------
 D--5---x-5---5--------5---x-5-----5----5---x-5----5-----5---x-5---------------
 A--5---x-5---5--------3---x-3-----3----5---x-5----5-----3---x-3---------------
 E--3---x-3---3-------------------------3---x-3----3---------------------------

 


 p p p p (fade out)


 


 Lead fill during second verse:


 


 b (1) r p p p p p


 

 
 E----------------------------------------- ------------------------------------
 B----------------------------------------- ------------------------------------
 G-14'---14--14-12-14-12-14-12----14-12~~~~ -12-12----12------------------------
 D-----------------------------14---------- -12-12----12------------------------
 A----------------------------------------- -------14----14-12-10~~~~-----------
 E----------------------------------------- ------------------------------------

 


 p p p p p


 


 Solo guitar:


 h p h p h p h p h p h p h


 b (1) r


 

 
 E------------------------------------ -----------------------------------------
 B------------------------------------ --8~~~~~~~~~~--7-8-8'-------8-7-8~~~~~~~-
 G------------------------------7-9-7- -----------------------------------------
 D----------------5-7-5--7-9-7-------- -----------------------------------------
 A--0-2-0--5-7-5---------------------- -----------------------------------------
 E------------------------------------ -----------------------------------------

 


 


 a.h.


 b (1) r s s


 

 
 -------------------------------------------------------------------------10---
 --7-8---8---8----8---8---8--------------8'-----------------------------8------
 ------9---7-------------------------------------------------------7--9--------
 --------------10---9---7----------------------------------7--9-5--------------
 ---------------------------10~~~~~----------------------5---------------------
 ----------------------------------------------12-\----3-----------------------

 


 p p p p p p p


 


 s p p p p p b (1) (dive w/ bar)


 

 
 /-15---15-12------------------------------------------------------------------
 -------------15-12-----------------------------------15'--15~~~~--------------
 -------------------14-12-----14--12--14--12------12-------------0-------------
 ---------------------------------------------14-------------------------------
 ------------------------------------------------------------------------------
 ------------------------------------------------------------------------------

 


 p


 


 b (1) r h b (1) r p p p p h p p h p


 

 
 -17'-----15--17~~~~~~---------------------------------------------------------
 ------------------------------------------------------------------------------
 -------------------------14'---14-12----12------------------------------------
 -------------------------------------14----14-12------------------------------
 -------------------------------------------------14-13-12-14-12-10-12-10~~~~~~
 ------------------------------------------------------------------------------

 


 


 s p (moderate vibrato)


 

 
 ------------------------------------------------------------------------------
 ------------------------------------------------------------------------------
 /-12~~~-12-11-9-11-9--7-9-7--5-7-5--4--5-4---4-------4------------------------
 -------------------------------------------5----5-7-----5~~~~~----------------
 ------------------------------------------------------------------------------
 ------------------------------------------------------------------------------ 

 


 p


 


 a.h.


 (heavy) (w/ feedback) (slow bend) (fade out).........


 

 
 ------------------------------------------------------------------------------
 ------------------------------------------------------------------------------
 --12~~~~~~~~~~~------7~~~~~~~~~~~~----4'-~~~~~~~~~~~~~~~~~--------------------
 ------------------------------------------------------------------------------
 ------------------------------------------------------------------------------
 ------------------------------------------------------------------------------

 


 


 Ending solo:


 


 p p p p p p p p p p p p


 

 
 E--15-12-------------15-12-------------15-12-------------15-12----------------
 B--------15-12-------------15-12-------------15-12-------------15-12----------
 G--------------14-12-------------14-12-------------14-12-------------14-12----
 D-----------------------------------------------------------------------------
 A-----------------------------------------------------------------------------
 E-----------------------------------------------------------------------------

 


 


 h p s s (fade)


 

 
 ------------------------------------------------------------------------------
 ------------------------------------------------------------------------------
 -12~~~~~~-11-12-11~~~~------11----12----11--------------------5-\-------------
 -------------------------12----12----12----12-12---14~~~~~~---5-\-------------
 --------------------------------------------------------------3-\-------------
 ------------------------------------------------------------------------------

 


 


 End:


 


 [s] [s] [s] [s] [s]  

 
 E----------3---------------0---------------3---------------3/5\3----------3---
 B------------3---------3-----3---------------3---------3---3/5\3-3/5\3-0--3---
 G------0-------0---------0-----0-------0-------0---------0-------2/4\2-0--0---
 D--------0-------0---2-----------2-------0-------0---2--------------------0---
 A----2-------------3-----------------2-------------3----------------------2---
 E--3-------------------------------3--------------------------------------3---


Important: The song above is NOT stored on the Chordie server. The original song is hosted at tabfu.thudspace.net. Chordie works as a search engine and provides on-the-fly formatting. Chordie does not index songs against artists'/composers' will. To remove this song please click here.

This song is displayed as text-only. Transposing and tuning is only available for chordpro-songs.
Rate #13 of 16 versions

Login - add to songbook

SHARE PAGE  




You need to log in to post comments