Guitar Tabs, Chords and Lyrics
Major upgrade!! After one year development the new version of Chordie is now online! Please give feedback.


Here Is No Why  The Smashing Pumpkins

[tbree versions, plus solo] 
Tabbed by Brian McCall
HERE IS NO WHY - by the Smashing Pumpkins from the album
==== == == === Mellon Collie and the Infinite Sadness
[Eb] [Ab] [Db] [Gb] [Bb] [Eb] 
*1
G1 Distortion doubled by acoustic
 
 -0---------0---------0--------------------0---------0--X--
 -2--X-X----2--X-X----2--X-X---------------0--X-X----0--X--
 -2--X-X--X-2--X-X--X-2--X-X---2h4p2\1h2/4-1--X-X----1--X--
 -2--X-X--X-2--X-X--X-2--X-X---------------2--X-X----2--X--
 -0--X-X--X-0--X-X--X-0--X-X--X------------2--X-X----2--X--
 ----X-X--X----X-X--X----X-X--X------------0--X-X--0-0--X-3
 -0---------0---------0--------------------0---------0-0-0--
 -2--X-X----2--X-X----2--X-X---------------0---------3-3-3-2
 -2--X-X--X-2--X-X--X-2--X-X---2h4p2\1h2/4-1---------2-2-2-2
 -2--X-X--X-2--X-X--X-2--X-X---------------2---------0-0-0-2
 -0--X-X--X-0--X-X--X-0--X-X--X------------2-2h4p2p0-0-0-0-0
 ----X-X--X----X-X--X----X-X--X------------0----------------

verse is same just without this^^^^^^^^^^^part.
*2
 
 -----------------------------------------------------------
 -------2-2----------------------------2-2------------------
 -------2-2------4-4-4-4-4-6-4-2-------2-2------4-4-4-4-----
 -4--4--2-2-X-2--X-X-X-X-X-X-X-X-4--4--2-2-X-2--X-X-X-X-----
 -4--4--0-0-X-2--2-2-2-2-2-4-2-0-X--X--0-0-X-2--2-2-2-2-----
 -2--2------X-0------------------2--2------X-0--------------

^
 
 --------------------------------0-0------------------------
 ---------------2-2--------------3-3------------------------
 -4-6-4-2-------2-2--------------2-2------------------------
 -X-X-X-X-4--4--2-2-X-2----------0-0-X----------------------
 -2-4-2-0-X--X--0-0-X-2--2h4p2p0-0-0-X----------------------
 ---------2--2------X-0--------------X----------------------

^repeat
repeat *1
*3
 
 ---------------0--0----------------------0--0--------------
 ---------------3--3--2-------------------3--3--------------
 -6-6--X-6-6--X-2--2--2-----6-6--X-6-6--X-2--2--1-----------
 -6-6--X-6-6--X-0--0--2-----6-6--X-6-6--X-0--0--2-----------
 -4-4--X-4-4--X-0--0--0-----4-4--X-4-4--X-0--0--2-----------
 -----------------------------------------------0-----------

repeat *2
it's all easy from there...
SONG: Here is No Why
By: The Smashing Pumpkins
Tab By: Carlos Bustos
Email: cab144@mail.usask.ca
TUNING: Down half a step
Comment: This song contains similar riffs throughout, BUT, the riffs
are changed everyonce in a while. I tab'ed it from start to
finish to make it easier.
[INTRO]: Amaj7, NOT A.
 
 -x-------------x-------------x------------------------------------------
 -2-----x-x--x--2-----x-x--x--2-----x-x--x------------------0-----x-x--x-
 -1-----x-x--x--1-----x-x--x--1-----x-x--x--2h4p2\1-1h2-2/4-1-----x-x--x-
 -2-----x-x--x--2-----x-x--x--2-----x-x--x------------------2-----x-x--x-
 -0-----x-x--x--0-----x-x--x--0-----x-x--x------------------2-----x-x--x-
 -x-----x-x--x--x-----x-x--x--x-----x-x--x------------------0-----x-x--x-
 -----------x-------------x-------------x-------------------------------
 -0---------2-----x-x--x--2-----x-x--x--2-----x-x--x------------------0-
 -1---------1-----x-x--x--1-----x-x--x--1-----x-x--x--2h4p2\1-1h2-2/4-1-
 -2---------2-----x-x--x--2-----x-x--x--2-----x-x--x------------------2-
 -2---------0-----x-x--x--0-----x-x--x--0-----x-x--x------------------2-
 -0--0--3p0-x-----x-x--x--x-----x-x--x--x-----x-x--x------------------0-
 -------------------
 -------------------
 -9/11-9-7-7-7-7-6--
 -x--x-x-x-7-7-7-7--
 -7/-9-7-5-5-5-5-7--
 ----------5-5-5-5-- 

[RIFF A]:
 
 ---x-------------x-------------x-------------x--------------------------
 ---2-----x-x--x--2-----x-x--x--2-----x-x--x--2-----x-x--x--0-----x-x--x-
 ---1-----x-x--x--1-----x-x--x--1-----x-x--x--1-----x-x--x--1-----x-x--x-
 ---2-----x-x--x--2-----x-x--x--2-----x-x--x--2-----x-x--x--2-----x-x--x-
 ---0-----x-x--x--0-----x-x--x--0-----x-x--x--0-----x-x--x--2-----x-x--x-
 ---x-----x-x--x--x-----x-x--x--x-----x-x--x--x-----x-x--x--0-----x-x--x- 

The useless ... another day The endless.. death rock boooooy__
 
 --------------
 ---0----------
 ---1----------
 ---2----------
 ---2----------
 ---0--0--3p0-- 

Repeat [RIFF A]:
Mascara sure and lipstick lost ... glitter burned by restless thoughts
 
 -------------------
 -------------------
 -9/11-9-7-7-7-7-6--
 -x--x-x-x-7-7-7-7--
 -7/-9-7-5-5-5-5-7--
 ----------5-5-5-5-- 

of being forgotten
[NEXT RIFF, tbis one varies]: Distortion comes in REALLY big here.
 
 ------------------------------------------------------------------------
 ------------------------------------------------------------------------
 ---------------6--6--6------------9-9-9-9-911-9-7-----------------------
 --4-----4-4-4--7--7--7--2---------x-x-x-x-x-x-x-x-----------------------
 --4-----4-4-4--7--7--7--2---------7-7-7-7-7-9-7-5-----------------------
 --2-----2-2-2--5--5--5--0----------------------------------------------- 

and in your sad machines
 
 ------------------------------------------------------------------------
 ------------------------------------------------------------------------
 ---------------6--6--6--9---------9-9-9-9-911-9-7-----------------------
 --4-----4-4-4--7--7--7--9---------x-x-x-x-x-x-x-x-----------------------
 --4-----4-4-4--7--7--7--7---------7-7-7-7-7-9-7-5-----------------------
 --2-----2-2-2--5--5--5-------------------------------------------------- 

you'll forever staaay
 
 ----------------------------------------------------
 ----------------------------------------------------
 ---------------6--6--6------------9/11-9-7-7-7-7-6--
 --4-----4-4-4--7--7--7--2---------x--x-x-x-7-7-7-7--
 --4-----4-4-4--7--7--7--2---------7/-9-7-5-5-5-5-7--
 --2-----2-2-2--5--5--5--0------------------5-5-5-5-- 

desperate and displeased with whoever you are
 
 ---------x-------------x---------------------------------------------
 -x-x--x--2-----x-x--x--2-----x-x--x------------------0-----x-x--x--0-
 -x-x--x--1-----x-x--x--1-----x-x--x--2h4p2\1-1h2-2/4-1-----x-x--x--1-
 -x-x--x--2-----x-x--x--2-----x-x--x------------------2-----x-x--x--2-
 -x-x--x--0-----x-x--x--0-----x-x--x------------------2-----x-x--x--2-
 -x-x--x--x-----x-x--x--x-----x-x--x------------------0-----x-x--x--0- 

and you're a star
 
 --------
 --------
 --------
 --------
 -------- 

-0--3p0-
[Tbe Amaj7 goes on a little longer bere] 
 
 -x-------------x-------------x-------------x-------------x------------
 -2-----x-x--x--2-----x-x--x--2-----x-x--x--2-----x-x--x--2-----x-x--x-
 -1-----x-x--x--1-----x-x--x--1-----x-x--x--1-----x-x--x--1-----x-x--x-
 -2-----x-x--x--2-----x-x--x--2-----x-x--x--2-----x-x--x--2-----x-x--x-
 -0-----x-x--x--0-----x-x--x--0-----x-x--x--0-----x-x--x--0-----x-x--x-
 -x-----x-x--x--x-----x-x--x--x-----x-x--x--x-----x-x--x--x-----x-x--x- 

Somewhere______ he pulls his hair down over a frowning
 
 -x-------------------------------------x-------------x-------------x----
 -2-----x-x--x--0-----x-x--x--0---------2-----x-x--x--2-----x-x--x--2----
 -1-----x-x--x--1-----x-x--x--1---------1-----x-x--x--1-----x-x--x--1----
 -2-----x-x--x--2-----x-x--x--2---------2-----x-x--x--2-----x-x--x--2----
 -0-----x-x--x--2-----x-x--x--2---------0-----x-x--x--0-----x-x--x--0----
 -x-----x-x--x--0-----x-x--x--0--0--3p0-x-----x-x--x--x-----x-x--x--x---- 

smile A hidden cannot find the secret
 
 ---------x------------------------------------
 -x-x--x--2----x-x--x--0-----------------------
 -x-x--x--1----x-x--x--1-----9/11-9-7-7-7-7-6--
 -x-x--x--2----x-x--x--2-----x--x-x-x-7-7-7-7--
 -x-x--x--0----x-x--x--2-----7/-9-7-5-5-5-5-7--
 -x-x--x--x----x-x--x--0--------------5-5-5-5-- 

star cannot shine over to you
-Palm Mute-
 
 --4-x-x-4-x-x-----------------------------------------------------------
 --5-x-x-5-x-x-5---5---7---7-----5---------------------------------------
 --6-x-x-6-x-x-6---6---7---7-----6---------------------------------------
 --6-x-x-6-x-x-6---6---7---7-----7----------------15b16b15~~-------------
 --4-x-x-4-x-x-4---4---5---5-----7---------------------------------------
 --4-x-x-4-x-x-4---4---5---5-----5--------------------------------------- 

May the king of gloom
-Palm Mute-
 
 --4-x-x-4-x-x-----------------------------------------------------------
 --5-x-x-5-x-x-5---5---7---7-----9---------------------------------------
 --6-x-x-6-x-x-6---6---7---7-----9----------------13/14-14/16-16~--------
 --6-x-x-6-x-x-6---6---7---7-----9-----------------x--x--x--x--x---------
 --4-x-x-4-x-x-4---4---5---5-----7----------------11/12-12/14-14~--------
 --4-x-x-4-x-x-4---4---5---5-----7--------------------------------------- 

Be for__ever doooooomed
 
 ------------------------------------------------------------------------
 ------------------------------------------------------------------------
 ---------------6--6--6------------9-9-9-9-911-9-7-----------------------
 --4-----4-4-4--7--7--7--2---------x-x-x-x-x-x-x-x-----------------------
 --4-----4-4-4--7--7--7--2---------7-7-7-7-7-9-7-5-----------------------
 --2-----2-2-2--5--5--5--0----------------------------------------------- 

and in your sad machines
 
 ------------------------------------------------------------------------
 ------------------------------------------------------------------------
 ---------------6--6--6--9---------9-9-9-9-911-9-7-----------------------
 --4-----4-4-4--7--7--7--9---------x-x-x-x-x-x-x-x-----------------------
 --4-----4-4-4--7--7--7--7---------7-7-7-7-7-9-7-5-----------------------
 --2-----2-2-2--5--5--5-------------------------------------------------- 

you'll forever stayyy_________
 
 ------------------------------------------------------------------------
 ------------------------------------------------------------------------
 ---------------6--6--6------------9-9-9-9-911-9-7-----------------------
 --4-----4-4-4--7--7--7--2---------x-x-x-x-x-x-x-x-----------------------
 --4-----4-4-4--7--7--7--2---------7-7-7-7-7-9-7-5-----------------------
 --2-----2-2-2--5--5--5--0----------------------------------------------- 

burning up in speed
 
 ------------------------------------------------------------------------
 ------------------------------------------------------------------------
 ---------------6--6--6------------9/11-9-7-7-7-7-6----------------------
 --4-----4-4-4--7--7--7--2---------x--x-x-x-7-7-7-7----------------------
 --4-----4-4-4--7--7--7--2---------7/-9-7-5-5-5-5-7----------------------
 --2-----2-2-2--5--5--5--0------------------5-5-5-5---------------------- 

lost inside the dreams of teen machines
[interlude leading up to solo]:
The useless drag, the empty days
the lonely towers of long mistakes
to forgotten faces and faded loves
sitting still was never enough
[SOLO]: Solo, credit goes to jhewitt@ifu.net for this part of the solo
thanx a bunch.
 
 --------------------------------------------------------------------
 --15b---------------------------------------------------------------
 -------------------------15b--12h13-12-12h13p12------------------15b
 -----16b-13-15-17h18-13~------------------------13h15p13--15p13-----
 --------------------------------------------------------------------
 --------------------------------------------------------------------
 --------------------------------------------------------------------
 --19b---------------------------------------------------------------
 ------15/17\13--------------------13h15p13-12h13p12-13h15-13b12-----
 ---------------15/17\13-13/15/18------------------------------------
 --------------------------------------------------------------------
 --------------------------------------------------------------------

-Palm Mute-
 
 --4-x-x-4-x-x-----------------------------------------------------------
 --5-x-x-5-x-x-5---5---7---7-----5---------------------------------------
 --6-x-x-6-x-x-6---6---7---7-----6---------------------------------------
 --6-x-x-6-x-x-6---6---7---7-----7----------------15b16b15~~-------------
 --4-x-x-4-x-x-4---4---5---5-----7---------------------------------------
 --4-x-x-4-x-x-4---4---5---5-----5--------------------------------------- 

and if your giving in(now thats a scream)
-Palm Mute-
 
 --4-x-x-4-x-x-----------------------------------------------------------
 --5-x-x-5-x-x-5---5---7---7-----9---------------------------------------
 --6-x-x-6-x-x-6---6---7---7-----9----------------13/14-14/16-16~--------
 --6-x-x-6-x-x-6---6---7---7-----9-----------------x--x--x--x--x---------
 --4-x-x-4-x-x-4---4---5---5-----7----------------11/12-12/14-14~--------
 --4-x-x-4-x-x-4---4---5---5-----7--------------------------------------- 

then your giving uuup
 
 ------------------------------------------------------------------------
 ------------------------------------------------------------------------
 ---------------6--6--6------------9-9-9-9-911-9-7-----------------------
 --4-----4-4-4--7--7--7--2---------x-x-x-x-x-x-x-x-----------------------
 --4-----4-4-4--7--7--7--2---------7-7-7-7-7-9-7-5-----------------------
 --2-----2-2-2--5--5--5--0----------------------------------------------- 

cause in your sad machines
 
 ------------------------------------------------------------------------
 ------------------------------------------------------------------------
 ---------------6--6--6--9---------9-9-9-9-911-9-7-----------------------
 --4-----4-4-4--7--7--7--9---------x-x-x-x-x-x-x-x-----------------------
 --4-----4-4-4--7--7--7--7---------7-7-7-7-7-9-7-5-----------------------
 --2-----2-2-2--5--5--5-------------------------------------------------- 

you'll forever stay
 
 ------------------------------------------------------------------------
 ------------------------------------------------------------------------
 ---------------6--6--6------------9-9-9-9-911-9-7-----------------------
 --4-----4-4-4--7--7--7--2---------x-x-x-x-x-x-x-x-----------------------
 --4-----4-4-4--7--7--7--2---------7-7-7-7-7-9-7-5-----------------------
 --2-----2-2-2--5--5--5--0----------------------------------------------- 

burning up in speed
 
 ----------------------------------------------------
 ----------------------------------------------------
 ---------------6--6--6------------9/11-9-7-7-7-7-6--
 --4-----4-4-4--7--7--7--2---------x--x-x-x-7-7-7-7--
 --4-----4-4-4--7--7--7--2---------7/-9-7-5-5-5-5-7--
 --2-----2-2-2--5--5--5--0------------------5-5-5-5-- 

lost inside the dreams of teen machines
 
 ---------x-------------x------------------------------------------------
 -x-x--x--2-----x-x--x--2-----x-x--x------------------5~-----------------
 -x-x--x--1-----x-x--x--1-----x-x--x--2h4p2\1-1h2-2/4--------------------
 -x-x--x--2-----x-x--x--2-----x-x--x--(slow)-----------------------------
 -x-x--x--0-----x-x--x--0-----x-x--x-------------------------------------
 -x-x--x--x-----x-x--x--x-----x-x--x------------------------------------- 

Date: Wed, 13 Dec 95 00:12:47 -0800
From: Tom
Subject: "Here is no why #solo#" by Smashing Pumpkins
Allright, here's what I make of the *Solo* of "Here is no why"
of the Smashing Pumpkins.
As you already know, you have to tune down your guitar half a step.
Eb Bb Gb Dg Ab Eb.
Distortion & Phasing!
b=bend /=slide up
h=hammer on \=slide down
p=pull off
 
 e --------------------------------- -12--------------------------------
 B -15b17------------9h10-----12b14- -----10--9--9h10p9------9----------
 G --------13\9--11--------9-------- --------------------11-----11------
 D --------------------------------- -----------------------------------
 A --------------------------------- -----------------------------------
 E --------------------------------- -----------------------------------
 e --------------------------------- -15b16--12h14----------------------
 B -------------12b14--------------- ---------------12-12h14------------
 G -9--11p9--9---------------------- -------------------------9-9h11----
 D --------------------------------- -----------------------------------
 A --------------------------------- -----------------------------------
 E --------------------------------- -----------------------------------
 e --------------------------------- -----------------------------------
 B -10--10h12p10-9-10-9-10h12-10-9-- -----------------------------------
 G --------------------------------- -11h13--11h13--11\9--11p9--9/13----
 D --------------------------------- -----------------------------------
 A --------------------------------- -----------------------------------
 E --------------------------------- -----------------------------------
 e --------------------------------- -(*)-----------------------20b21~~17
 B ---------------9--10--12--12/17-- -17--20b21--17--20b21--17----------
 G -11--9--9--11-------------------- -----------------------------------
 D --------------------------------- -----------------------------------
 A --------------------------------- -----------------------------------
 E ---------------<>---------------------------

(-not sure about this part-)
(*)= repeat this note a couple of times.
This should be all, but I'm not sure about that last part though!
Please send me corrections on that last part!
Tabbed By Tom Liu -December 10th 1995-
E-mail r20025@glo.be
 
 ---------------------------------247042480117881--

Date: Sat, 16 Dec 95 23:18:18 -0800
From: Tom
Allright, here's what I make of the *Solo* of "Here is no why"
of the Smashing Pumpkins.
As you already know, you have to tune down your guitar half a step.
Eb Bb Gb Dg Ab Eb.
Distortion & Phasing!
b=bend /=slide up
h=hammer on \=slide down
p=pull off
 
 e --------------------------------- -12--------------------------------
 B -15b17------------9h10-----12b14- -----10--9--9h10p9------9----------
 G --------13\9--11--------9-------- --------------------11-----11------
 D --------------------------------- -----------------------------------
 A --------------------------------- -----------------------------------
 E --------------------------------- -----------------------------------
 e --------------------------------- -15b16--12h14----------------------
 B -------------12b14--------------- ---------------12-12h14------------
 G -9--11p9--9---------------------- -------------------------9-9h11----
 D --------------------------------- -----------------------------------
 A --------------------------------- -----------------------------------
 E --------------------------------- -----------------------------------
 e --------------------------------- -----------------------------------
 B -10--10h12p10-9-10-9-10h12-10-9-- -----------------------------------
 G --------------------------------- -11h13--11h13--11\9--11p9--9/13----
 D --------------------------------- -----------------------------------
 A --------------------------------- -----------------------------------
 E --------------------------------- -----------------------------------
 e --------------------------------- -(*)-----------------------20b21~~17
 B ---------------9--10--12--12/17-- -17--20b21--17--20b21--17----------
 G -11--9--9--11-------------------- -----------------------------------
 D --------------------------------- -----------------------------------
 A --------------------------------- -----------------------------------
 E ---------------<>---------------------------

(-not sure about this part-)
(*)= repeat this note a couple of times.
This should be all, but I'm not sure about that last part though!
Please send me corrections on that last part!
Tabbed By Tom Liu -December 10th 1995-
E-mail r20025@glo.be
 
 ---------------------------------1077715649209--


Important: The song above is NOT stored on the Chordie server. The original song is hosted at tabfu.thudspace.net. Chordie works as a search engine and provides on-the-fly formatting. Chordie does not index songs against artists'/composers' will. To remove this song please click here.

Text color:
Chord color:
Chord grids: 
Font size:    
Page size: 

Ab Bb Db Eb Gb
Rate #1 of 5 versions

Login - add to songbook

SHARE PAGE  



You need to log in to post comments