Guitar Tabs, Chords and Lyrics
Major upgrade!! After one year development the new version of Chordie is now online! Please give feedback.


Muzzle  The Smashing Pumpkins

Tabbed by Brian McCall
MUZZLE - by Smashing Pumpkins on MCIS, written by Billy
======
Eb tuning
G1 slightly distorted
 
 --------------------------------------------------------
 -2--2--2--2--0--0--------2--2--2--2--0--0---------------
 -2--2--2--2--0--0--4--4--2--2--2--2--0--0--4--4---------
 -2--2--2--2--0--0--4--4--2--2--2--2--0--0--4--4---------
 -0--0--0--0--X--X--2--4--0--0--0--0--X--X--2--2---------
 -------------3--3--------------------3--3---------------

both guitars distortion
 
 --------------------------------------------------------
 -2--2--2--2--0--0--------2--2--2--2--0--0---------------
 -2--2--2--2--0--0--4--4--2--2--2--2--0--0--4--4---------
 -2--2--2--2--0--0--4--4--2--2--2--2--0--0--4--4---------
 -0--0--0--0--X--X--2--4--0--0--0--0--X--X--2--2---------
 -------------3--3--------------------3--3---------------

^repeat
 
 -0--0--0--0---------------------------------------------
 -3--3--3--3--------------------------2--2--2--2---------
 -2--2--2--2--4--4--4--4--------------2--2--2--2---------
 -0--0--0--0--4--4--4--4--2--2--2--2--2--2--2--2---------
 -0--0--0--0--2--2--2--2--2--2--2--2--0--0--0--0---------
 -------------------------0--0--0--0---------------------

*2 Chorus
 
 --------------------------------------------------------
 -0--0------------2--2--2--2--0--0------------2--2--2--2-
 -0--0--X-4--4--X-2--2--2--2--0--0--X-4--4--X-2--2--2--2-
 -0--0--X-4--4--X-2--2--2--2--0--0--X-4--4--X-2--2--2--2-
 -X--X--X-2--2--X-0--0--0--0--X--X--X-2--2--X-0--0--0--0-
 -3--3--X-------X-------------3--3--X-------X------------
 ---------------------------------------------0--0--0--0-
 -0--0------------2--2--2--2--0--0------------3--3--3--3-
 -0--0--X-4--4--X-2--2--2--2--0--0--X-4--4--X-2--2--2--2-
 -0--0--X-4--4--X-2--2--2--2--0--0--X-4--4--X-0--0--0--0-
 -X--X--X-2--2--X-0--0--0--0--X--X--X-2--2--X-0--0--0--0-
 -3--3--X-------X-------------3--3--X-------X------------

*3
 
 --------------------------------------------------------
 -2--2--2--2--0--0--------2--2--2--2--0--0---------------
 -2--2--2--2--0--0--4--4--2--2--2--2--0--0--4--4---------
 -2--2--2--2--0--0--4--4--2--2--2--2--0--0--4--4---------
 -0--0--0--0--X--X--2--4--0--0--0--0--X--X--2--2---------
 -------------3--3--------------------3--3---------------

^repeat
 
 -0--0--0--0---------------------------------------------
 -3--3--3--3--------------2--2--2--2---------------------
 -2--2--2--2--4--4--4--4--2--2--2--2---------------------
 -0--0--0--0--4--4--4--4--2--2--2--2---------------------
 -0--0--0--0--2--2--2--2--0--0--0--0---------------------
 --------------------------------------------------------

^repeat
Solo/Lead Fill
octaved or something
 
 --------------------------------------------------------
 --------------------------------------------------------
 -7--9--11----11hbr-9--7--9------------------------------
 ----------------------------7---------------------------
 --------------------------------------------------------
 --------------------------------------------------------

repeat chorus and last half of *3 and chorus again.
Date: Sun, 23 Feb 1997 15:11:52 -0800
From: Ogden Environmental and Energy Services
SMASHING PUMPKINS:
MUZZLE
======
Written by Billy Corgan
MCIS : Starlight to Twilight
Open Tuning
(Eb, Ab, Db, Gb, Ab, Eb) Down One Half Step + Drop B
Quick Reference Cords (Remember the tuning is different)
A : X02200
B : X20020
G : 3X0000
D : XX0250
E5 : 022XXX
Guitar 1: Bridge Pickup, Big Muff; Volume knob rolled off
INTRO/VERSE 1:
[A] [G] [B]  
 
 --0--0--0--0-- --------0--0--
 --0--0--0--0-- --0--0--0--0--
 --2--2--2--2-- --0--0--2--2--
 --2--2--2--2-- --0--0--0--0--
 --0--0--0--0-- --X--X--2--2--
 -------------- --3--3-------- 

I fear that I am ordinary..
Just like everyone..
Guitar 2 In; Doubles Guitar one (Split in stereo);
Kick up the volume knob to 10 on both guitars
To lie here, and die among the sorrows
Drift among the days..
PRECHORUS:
[D] [B] [E5] [A]  
 
 -0--0--0--0-- --0--0--0--0--0-- -------------- --0--0--0------
 -5--5--5--5-- --0--0--0--0--0-- -------------- --0--0--0------
 -2--2--2--2-- --2--2--2--2--2-- -------------- --2--2--2------
 -0--0--0--0-- --0--0--0--0--0-- --2--2--2--2-- --2--2--2------
 ------------- --2--2--2--2--2-- --2--2--2--2-- --0--0--0------
 ------------- ----------------- --0--0--0--0-- ---------------

[D]Cause everything I've ever said and [B]everything I've ever done
[E5]Is gone, an[A]d dead
CHORUS:
 
 -------0--0-- --0--0--0--0--
 -0--0--0--0-- --0--0--0--0--
 -0--0--2--2-- --2--2--2--2--
 -0--0--0--0-- --2--2--2--2--
 -X--X--2--2-- --0--0--0--0--
 -3--3-------- -------------- 

'Cause some things will surly have to end
Great loves will one day have to part
 
 -------0--0-- --0--0--0--0--
 -0--0--0--0-- --5--5--5--5--
 -0--0--2--2-- --2--2--2--2--
 -0--0--0--0-- --0--0--0--0--
 -X--X--2--2-- --------------
 -3--3-------- -------------- 

I Know that I am meant for this world
Second Verse:
[A]My life has bee[G]n extraor[B]dinary b[A]lessed and cursed and wo[G]n[A]
Time heals but I'm forever broken by and by the way
[D]Have you ever heard the w[B]ords I'm singing in these song[A]s
Its for the girl I've loved all along
Can a taste of love be so wrong?
Second Chorus, Same As the First Chorus
[B]And in my mind as I was floating
[G]Far above the clouds[A]
[D]Some children laughed, I'd fall for certain
[B]For thinking that I'd last forever[A]
(Roll volume off again)
But I knew exact[G]ly where I was[B] [A]
And I knew ... ... (repeatedly)
(Kick in the high volume at this line)
And I knew the secrets in your spires
..( repeat more "and I knew")
[D]and the world is drawn int[B]o your hands[A]
(repeat and the world with same chords)
[D]is the world you can't liv[B]e without[A] [G] [B]
[A]and I knew the silence[G] of the world[B] [A]
End on A.

Important: The song above is NOT stored on the Chordie server. The original song is hosted at tabfu.thudspace.net. Chordie works as a search engine and provides on-the-fly formatting. Chordie does not index songs against artists'/composers' will. To remove this song please click here.

Text color:
Chord color:
Chord grids: 
Font size:    
Page size: 

A B D E5 G
Rate #1 of 5 versions

Jango Player

Login - add to songbook

SHARE PAGE  



You need to log in to post comments