Guitar Tabs, Chords and Lyrics
Server problems seems to be fixed. Chordie has been experiencing problems with songs disappearing. These issues now seems to be fixed, but still verifying the fix. If you find anything strange, please email admin@chordie.com.


Eyes of a Child  Soul Asylum

>From: jyoon
>Subject: TAB:Eyes of a Child (Soul Asylum)
>Date: Sun, 10 Nov 1996 00:30:00 -0400
Eyes of a Child
Soul Asylum
All right, this is my first post after my disastrous Oasis post, so hope this works. This is
easy and much easier than the last one I posted. Sorry, I made it kinda concise and it may be hard to understand,
so if you need help, feel free to E-mail me.
G 320033 D x00232
Dadd9 032033 Dsus4 x00233
Fills (All are guitar 2)
Intro
 
 ------------10----------------------------------------
 -8--8--7h8------8--8--8--7h8--------------------------
 ------------------------------7--7--7--5--4--4--------
 ------------------------------------------------5--7--
 ------------------------------------------------------
 ------------------------------------------------------

Fill1
 
 ---8--8--8--10--8------------7--7--5---------8--8-----7--7--7--8--10------
 -------------------10-----------------8--8---------8------------------10--
 --------------------------------------------------------------------------
 --------------------------------------------------------------------------
 --------------------------------------------------------------------------
 --------------------------------------------------------------------------

Fill 2 Fill 3 Fill 4
 
 --------------- -------------------- ------------
 --------------- -8--8--7h8---------- ------------
 -7--7--5--4--4- ------------7--7--7- -4--7-------
 --------------- -------------------- -------7----
 --------------- -------------------- ------------
 --------------- -------------------- ------------

Fill 5 Fill 6
 
 -----------2-
 -7--8--10--3- ------------10-----
 -----------2- -8--8--7h8------8--
 ------------- -------------------
 ------------- -------------------
 ------------- -------------------
 -------------------

Intro fill
She [Dadd9]had thirteen [G]kids
Each one had thirteen problems
Three uppers ten downers
Just to [Dadd9]put up with [D]this
She [Dadd9]don't know which [G]children
Belong to which father
But she loves them all anyway
And they [Dadd9]each get a [D]kiss
(Fill 1)Dadd9 G
And the toilet aien't flushing
And the toaster is smoking
The vacuum don't suck
but it [Dadd9]needs a new [D]belt
But [Dadd9]she saw the [G]world through the [Dadd9]eyes of a [G]child
And [Dadd9]remembers how [G]good it was and [Dadd9]how go[D]od it felt
(Fill2)Dadd9 G
He picked up the paper
(Fill 3) Dadd9 G
>From the bitter cold morning
He had just gone to sleep
(Fill 4) Dadd9 D
He had to get up for work
(Fill6)Dadd9 G
By morning he's a watchman
By night he's a waiter
In the late afternoon
(Fill5)Dadd9 D
He works as a clerk
(Fill1)Dadd9 G
And he can't pay the doctor bills
He just can't afford the pills D
The car's repossesed and the child support's due
But she [Dadd9]saw the [G]world through the [Dadd9]eyes of a [G]child
The [Dadd9]problems seemed [G]smaller and [Dadd9]all thin[D]gs seemed new
SOLO
 
 -3/8--8--8--7--7--7-----------7-----------------------------------------------------------------------------
 ----------------------8--10-------8--7----------------------------------------------------------------------
 -----------------------------------------9---7--7--7--5--5--5--4--5--7--------------------------------------
 ------------------------------------------------------------------------7-------------10b(11)-----7---------
 ------------------------------------------------------------------------------------------------------------
 ------------------------------------------------------------------------------------------------------------

[Dadd9]She was just [G]six
when she turned her first trick
Now she's thirteen
and it [Dadd9]don't make her [D]sick
(Fill3) Dadd9 G
And she's does lots of crystal
And she owns her own pistol
Got a goldfish named Silver
And a [Dadd9]pimp who's named [D]Rick
(Fill1)Dadd9 G
And some are like customers
And some are like patients
She'd 've [Dadd9]gone back to [G]school if she [Dadd9]just had the [D]patience
But [Dadd9]she saw the [G]world through the [Dadd9]eyes of a [G]child
And [Dadd9]none of the [G]nightmares are not[Dadd9]hing to de[D]ny
[Dadd9]She saw the [G]world through the [Dadd9]eyes of a [G]child
Well [Dadd9]she's seen them [G]all and she [Dadd9]knows [D] they're all lies
OUTRO- Dadd9 G D Dsus4 G

Important: The song above is NOT stored on the Chordie server. The original song is hosted at tabfu.thudspace.net. Chordie works as a search engine and provides on-the-fly formatting. Chordie does not index songs against artists'/composers' will. To remove this song please click here.

Text color:
Chord color:
Chord grids: 
Font size:    
Page size: 

D Dadd9 G
Rate #2 of 4 versions

Login - add to songbook

SHARE PAGE  




You need to log in to post comments