Guitar Tabs, Chords and Lyrics
Major upgrade!! After one year development the new version of Chordie is now online! Please give feedback.


I Awake   Soundgarden

 
 -----------------
 -----------------
 -----------------
 -3---------------
 ---2--1----------
 ---------4br--3-- 

 


 


 I think the harmonics are at the 10th fret on the G and D strings.


 


 Chorus: (6/4)


 

 
 ---------------------
 ---------------------
 ---------------------
 -2-2-2-2-1-------0---
 -2-2-2-2-1---------0-
 -2-2-2-2-1-----0----- 

 


 


 Verse:


 [(6/4)] [(5/4)]  


 

 
 ------------------------ ---------------------
 ------------------------ ---------------------
 ------------------------ ---------------------
 ------------------------ ---------------------
 -2-3-3-3-3---2-3-3-3-3-- -2-3-3-3-3---2-3-4-4-
 -2-3-3-3-3---2-3-3-3-3-- -2-3-3-3-3---2-3-4-4- 

 


 


 Pre-chorus:


 [(7/4)] [(4/4)]  


 

 
 ------------------------------- -------------------------
 ------------------------------- -------------------------
 ------------------------------- -------------------------
 ------------------------------- -------------------------
 ------------------------------- -------------------------
 -2-3-3-3-3br--2-3-3br--2-3-4-4- -2-3-3-3-3br-2-3-4-4-4-4- 

 


 


 Post chorus: After Post chorus:


 

 
 ----------------------------- -----------------------------
 ----------------------------- -----------------------------
 ----------------------------- -----------------------------
 -------------0--------------- -0--------------0------------
 -4-3-2-4-3-2-0--------------- -0--------------0------------
 -4-3-2-4-3-2-0----/4--3--2--- -0--------------0------------ 


Important: The song above is NOT stored on the Chordie server. The original song is hosted at tabfu.thudspace.net. Chordie works as a search engine and provides on-the-fly formatting. Chordie does not index songs against artists'/composers' will. To remove this song please click here.

This song is displayed as text-only. Transposing and tuning is only available for chordpro-songs.
Rate #1 of 3 versions

Jango Player

Login - add to songbook

SHARE PAGE  




You need to log in to post comments