Guitar Tabs, Chords and Lyrics
Major upgrade!! After one year development the new version of Chordie is now online! Please give feedback.


In This Time  The Tea Party

Date: Thu, 23 May 1996 05:17:19 -0600 (MDT)
From: Chris Anderson
**********************************
* The Tea Party ~ In This Time *
* from Splendor Solis *
**********************************
Well, the tea party selection on olga is rather lacking, so having sorted
out most of this song (minus some fill and the other instrument) I suppose it
would be criminal not to tab and post it. This is my first attempt at
creating a tab, so if things start getting confusing or just plain wrong,
you know why. Neglecting any (probable) mistakes I may make in the
process, I think this should be quite close to the album, but if I
prove to be wrong please post your corrections and/or send them to me.
The song (I believe) is in the key of D major.
Tuning: A9 (Spelled A C# E Gb B; IV9 in DM)
[e] up to [Gb]
[B] up to [C#]
[G] up to [A]
[D] up to [E]
[A] up to [B]
[E] up to [A]
Note:
It is generally good to let the notes
ring as much as possible during
all parts of the song.
h Hammer
p Pull off
-[B7]x- Harmonic, 7th fret
************************************************************
Intro:
 
 ------

Part A: H7
 
 Gb ---------------7-----------------7--
 C# ---------7---------------x----------
 A ------------------------------------
 E -----7-------7-------7-------7------
 B -------5-------5-------5-------5----
 A ---0-------0-------0-------0-------- 

Part B:
 
 Gb --------------------
 C# ---------7-------0--
 A --------------------
 E -----7-------7------
 B -------5-------5----
 A ---0-------0-------- 

Verse:
 
 ------

Part A:
 
 Gb --------------------------------------------------------------------
 C# -----------0---------------0---------------0---------------0--------
 A ---------4---4-----------5---5-----------7---7-----------5---5------
 E -------0-------0-------0-------0-------0-------0-------0-------0----
 B -----5-----------5---7-----------7---9-----------9---7-----------7--
 A ---0---------------0---------------0---------------0---------------- 

Part B:
 
 Gb --------------------------------------------------------------------
 C# -----------0---------------0---------------------0---------------0--
 A ---------4---4-----------5---5-----------7---------------7----------
 E -------0-------0-------0-------0-------0-------0-------0-------0----
 B -----5-----------5---7-----------7---9-------9-------9-------9------
 A ---0---------------0---------------0-------0-------0-------0-------- 

Part C:
 
 Gb --------------------------------------------------------------------
 C# --------------------------------------------------------------------
 A ---------0-------0-------0-------0-------0-------0-------0-------0--
 E -------0-------0-------0-------0-------0-------0-------0-------0----
 B -----5-------5-------7-------7-------9-------9-------7-------7------
 A ---0-------0-------0-------0-------0-------0-------0-------0-------- 

Chorus:
 
 -------

Part A:
 
 Gb --------------------------------------
 C# -----------3---------------3----------
 A ---------3---3-----------3------------
 E -------5-------5-------5--------------
 B -----5-----------5---5----------------
 A ---0---------------0------------------ 

Part B: H12
 
 Gb ------------------------------------------
 C# --------------------x------------------0--
 A ------------------------------------------
 E --------9-12------9---------9-12------9---
 B -----12--------12--------12--------12-----
 A ---0---------0---------0---------0-------- 

Part C:
 
 Gb ----------------------------------------------------------2---------
 C# ---------3-------5-------3--------5p3-1p0-3p0---------0-------------
 A -------0-------0-------0-------0--0-----------2p0-0-2---2-----------
 E -----0-------0-------0-------0----0---------------------------------
 B ----------------------------------0---------------------------------
 A ---0-------0-------0-------0---------------------------------------- 

Outro:
 
 ------
 Gb -----------------------------------------------------
 C# -----------------------------------------------------
 A -------14----12----11----12----14----12----11----12--
 E ------0-----0-----0-----0-----0-----0-----0-----0----
 B ----15----14----12----14----15----14----12----14-----
 A ---0-----0-----0-----0-----0-----0-----0-----0-------
 Gb ----------------------------------------------------- Note: As you
 C# ----------------------------------------------------- move down the
 A -------14----12----11----9----7-------5----------4--- fingerboard
 E ------0-----0-----0-----0----0------0---------0------ here the tempo
 B ----15----14----12----10----9-----7--------5--------- should slow
 A ---0-----0-----0-----0-----0----0-------0------------ steadily as 

(kind of) shown.
 
 Gb -------------------------------------- If in doubt,
 C# ----------------0--------------------- listen to the
 A ------------2-------2----------------- album.
 E ---------0--------------0-------------
 B ------3----------------------3--------
 A ---0-------------------------------0-- 

[B12] [B7] [B5]  
 
 Gb ---0h2p0-----------------------------------------
 C# ---------0------------------------x-----x-----x-- Note:
 A -------------------0--------------x-----x-----x-- Hammer/Pulloff
 E -------------0h2p0----------------x-----x-----x-- section needs to
 B ------------------------2h3p2p0---x-----x-----x-- be quite fast.
 A ----------------------------------x-----x-----x-- 

***********************************************************************
Arrangement:
Intro A
Intro B(x5)
Verse A(x2)
Verse A Hey lady, looks like I'm under your spell once again
Verse A
Verse A Hey lady, there just now ain't no denying these things
Verse B
Verse C I will always be here
Verse C Always be with you
Verse A(x2)
Verse A I know she said, let the leaves fall wherever they may
Verse A
Verse A But I find it hard, hard to find people like she is today
Verse B
Verse C I will always be here
Verse C Always be with you
Intro A
Intro B(x2)
Chorus A In this time
Chorus B
Chorus A In this time
Chorus B
Chorus A In this time
Chorus C
Verse A(x2)
Verse A When you lay to sleep, tell me the visions you see in the night
Verse A
Verse A When you turn around, what kind of shadow is cast by the light
Verse B
Verse C She will always be here
Verse C Always be here
Verse C I will always be here
Verse C I will always be with you
Intro A
Intro B(x2)
Chorus A In this time
Chorus B
Chorus A In this time
Chorus B
Chorus A In this time
Chorus B
Chorus A In this time
Chorus C
Outro
************************************************************
Chris Anderson(anima@nmt.edu)
[--]"I gotta tell you there's deception in the suplex,
although I don't have much to show.
And if you don't believe your standing on a landmine,
you'll just have to wait till it blows."
- Grant Lee Phillips

Important: The song above is NOT stored on the Chordie server. The original song is hosted at tabfu.thudspace.net. Chordie works as a search engine and provides on-the-fly formatting. Chordie does not index songs against artists'/composers' will. To remove this song please click here.

Text color:
Chord color:
Chord grids: 
Font size:    
Page size: 

A B B12 B5 B7 C# D E G Gb
Rate #3 of 7 versions

Jango Player

Login - add to songbook

SHARE PAGE  




You need to log in to post comments