Guitar Tabs, Chords and Lyrics
Major upgrade!! After one year development the new version of Chordie is now online! Please give feedback.


Winter Solstice   The Tea Party

 
 E-----x---x---------0-------------------0-----------------------------x-
 C-----x---x-------0---0---0---------0-2---2-0--------0h2p0--4p2p0-----x-
 G-----x---x-----5-------5---------0-----------------------------------x- X2
 C-----x---x---0-----------------2---------------------------------0---x-
 G-----x---x-------------------3-------------------2-------------------x-
 D-----x---x-------------------------------------3---------------------x-
 E--------------------------------------------------------------------------
 C---------0h2p0----------------------0h2p0---/4-0---0-0-0------------------
 G----------------/5-5-4-5-5-5----------------/0-0-4-0-0-0------------------
 C-----------------0-0-0-0-0-0-----------------0-0-0-0-0-0------------------
 G-------2--------/5-5--------------2---------/5----------------------------
 D-----3--------------------------3-----------------------------------------

 


 


 [12]  

 
 E-------------------------------------------------------x------------------
 C---------0h2p0--------0h2p0---0--------0h2p0---4p2p0---x------------------
 G--------------------4-------4--------------------------x------------------
 C------------------4------------------------------------x------------------
 G-------2--------2--------------------2-----------------x------------------
 D-----3-----------------------------3-------------------x------------------
 E----/3-3-3-3-1--/5-5-5-5-3--/6-6-6-6-5----0-1-/5-\3-----------
 C-----0-0-0-0-0---0-0-0-0-0---0-0-0-0-0------------------------
 G-------------------------------------------------------------- X4 (with
 C-------------------------------------------------------------- variations)
 G--------------------------------------------------------------
 D--------------------------------------------------------------

 


 Then the fast picking part


 


 

 
 E----------------------------------------------------------
 C------------------2h4p3p2p0-------------------------------
 G---0h2p0---0-4--------------------------------------------
 C---------4-----------------4h5---2h4p3p2p0----------------
 G----------------------------------------------------------
 D-----------------------------------------2p3--------------
 E-----------------------------------------
 C-----------------------2p0---0-4p2p0-0---
 G---2p0---0--4p2p0---0------4------------- X2
 C-------4----------4----------------------
 G-----------------------------------------
 D-----------------------------------------
 E-----------------------------------------
 C-----------------------------------------
 G---2p0---0--4p2p0---0--2p0--------------- X2
 C-------4----------4--------4---4p2p0-0---
 G-----------------------------------------
 D-----------------------------------------
 E----------------------------------------------
 C---5-\4-\2-0---5-\4-\2-0--5-\4-\2-0--4/5/9\7-- (I usually adlib until it
 G---------------------------------------------- goes back into the main
 C---------------------------------------------- part)
 G----------------------------------------------
 D----------------------------------------------


Important: The song above is NOT stored on the Chordie server. The original song is hosted at tabfu.thudspace.net. Chordie works as a search engine and provides on-the-fly formatting. Chordie does not index songs against artists'/composers' will. To remove this song please click here.

This song is displayed as text-only. Transposing and tuning is only available for chordpro-songs.
Rate #0 of 3 versions

Login - add to songbook

SHARE PAGE  




You need to log in to post comments