Guitar Tabs, Chords and Lyrics
Major upgrade!! After one year development the new version of Chordie is now online! Please give feedback.


Jam  Toad the Wet Sprocket

by Toad the Wet Sprocket
from the "Pale" CD
contributed by Ryan Houlette
(rhoulett@depauw.edu)
Another in the "Hey, this is how I play it, guys" series
[intro] 
 
 -0-----0-----------0--------3-----3----------------
 -3--------3-----------3-----3--------3-------------
 -2--2--------2-----------2--0--0--------0----------
 -0--------------0-----------0----------------------
 ----------------------------2----------------------
 ----------------------------3----------------------

(repeat 2x)
[verse] 
this part should be loosely strummed--listen to the song for the rhythm
[D]  
 
 -2------2--2--2---2--2--2---2--2--2--2-2-2--------- (repeat 2x)
 -5-p-3--3--3--3-p-2--2--2-h-3--3--3--3-3-3---------
 -2------2--2--2---2--2--2---2--2--2--2-2-2---------
 -0------0--0--0---0--0--0---0--0--0--0-0-0---------
 -0------0--0--0---0--0--0---0--0--0--0-0-0---------
 ---------------------------------------------------

then
[G]  
 
 ---------------------------------------------------
 ----------3--------------------3-------------------
 -------0-----0-----0--------0-----0-----0----------
 ----0-----------0--------0-----------0-------------
 ---------------------------------------------------
 -3--------------------0----------------------------

the above tab sequence repeats for the verse
[D]One more time he says good night
[D]Turns out the door and off the light, cursing low
[G]As if she didn't know[D]
[D]One more time he'd comfort her
[D]As if a word could break through her--she's so quiet
[G]And he's so sick of it [D]
[cborus] 
Just arpeggiate these chords as you wish
[D]Too [Em]long Too [G]late this time[D]
[D]Too [Em]far Too [G]great in my [D]mind
[verse] 
[D]One more time a runaround
[D]Nothing meant by anyone--fine with them
[G]Such a quiet din[D]
[D]Says he wants to leave a while
[D]She just sits and tries to smile--that's okay
[G]It was boring anyway [D]
[cborus] 
[D]Too [Em]long Too [G]late this time[D]
[D]Too [Em]far Too [G]great in my [D]mind [G]
[verse] 
[D]Says she need a worshipper
[D]Someone who'll do anything at all
[G]for her--wishful thinker [D]
[D]He don't need this schizo bull
[D]Each one misses by so far, they don't see it
[G]come. But who ever does?[D]
[cborus] 

Important: The song above is NOT stored on the Chordie server. The original song is hosted at tabfu.thudspace.net. Chordie works as a search engine and provides on-the-fly formatting. Chordie does not index songs against artists'/composers' will. To remove this song please click here.

Text color:
Chord color:
Chord grids: 
Font size:    
Page size: 

D Em G
Rate #1 of 6 versions

Jango Player

Login - add to songbook

SHARE PAGE  




You need to log in to post comments