Guitar Tabs, Chords and Lyrics
Major upgrade!! After one year development the new version of Chordie is now online! Please give feedback.


Exoskeletons   Tourniquet

 
 ----------

 


 


 Intro / Verse:


 [End] [1] [End] [2] 


 

 
 --------------------------------- --- ---
 --------------------------------- --- ---
 --------------------------------- --- --- (4x / 2x)
 --------------------------------- --- -2-
 ---7/\---6/\---5/\-----3^2------- --- -2-
 -0-----0-----0-----0-3-----0-2-3- -0- -0- 

 


 


 Chorus:


 


 

 
 ----------------------------------------------------------
 ----------------------------------------------------------
 -------------------------------2-------------------------- (4x)
 -------------------------------2------------5-------------
 ---7^5-7/8/7-5-7--7^5---5-7/\--0-3^0-3/5-5--5-3^0-5/\-3-5-
 -0--------------------7---------------------3------------- 

 


 


 (Verse) (4x)


 


 (Chorus) (2x)


 


 Bridge:


 


 

 
 ------------------------------------------------
 ------------------------------------------------
 ------------------------------------------------
 ---------------------------------------7--------
 -5/7-7-----7-7-8-8-10-8-7------7-7-8-8---8-7----
 -------0-------------------0------------------0-
 --------------------------------------
 --------------------------------------
 --------------------------------------
 -----------------------------7--------
 -7-7-8-8-10-8-7------7-7-8-8---8-7----
 -----------------0------------------0- 

 


 


 Solo (Rhythm):


 


 

 
 -----------------------------------
 -----------------------------------
 -------------------2--------------- (2x)
 -------------------2-------------5-
 ---7^5-7/8/7-5-7---0-3^0-3/5-5---5-
 -0-------------------------------3-
 --------------------------------------
 ------------------------------------8-
 ----------------------7----9-7-10-9---
 --------7----9-7-10-9---10------------
 -7-10-9---10--------------------------
 -------------------------------------- 

 


 


 (Chorus) (4x)


 


 Outro:


 


 

 
 --------------------------------------------------------------------
 --------------------------------------------------------------------
 -----------------------------------------------------------------5/-
 --------------------------------------------5/7--7^5---7-7-7^5---5/-
 -7-7^5---5-7-7--7-7-7^5---5---7-7-7^5---5-7----------7---------7-7/-
 -------7----------------7-------------7-----------------------------
 ----------


Important: The song above is NOT stored on the Chordie server. The original song is hosted at tabfu.thudspace.net. Chordie works as a search engine and provides on-the-fly formatting. Chordie does not index songs against artists'/composers' will. To remove this song please click here.

This song is displayed as text-only. Transposing and tuning is only available for chordpro-songs.
Rate #3 of 5 versions

Jango Player

Login - add to songbook

SHARE PAGE  




You need to log in to post comments