Guitar Tabs, Chords and Lyrics
Major upgrade!! After one year development the new version of Chordie is now online! Please give feedback.


Antisocial  Trust

Subject : Antisocial.tab
by TRUST (a famous french group)
INTRO (guitare accoustique) :
*****************************
[C] [(add9)] [G] [C] [(add9)]  
 
 T-- --0-------0----------- --3------3--3----------- --0------0--0-----------
 --- --3----------3-----3-- --3------------3-----3-- --3------------3-----3--
 A-- --0-------------0----- --0---------------0----- --0---------------0-----
 --- --2------------------- --0--------------------- --2---------------------
 B-- --3------------------- --2--------------------- --3---------------------
 --- ---------------------- --3--------------------- ------------------------ 

[G] [C] [(add9)] [G]  
 
 T-- --3----3--3----------- --0------0--0----------- --3---------------------
 --- --3----------3-----3-- --3------------3-----3-- --3---------------------
 A-- --0-------------0----- --0---------------0----- --0---------------------
 --- --0------------------- --2--------------------- --0---------------------
 B-- --2------------------- --3--------------------- --2---------------------
 --- --3------------------- ------------------------ --3--------------------- 

INTRO (electrique and accoustique) :
************************************
[C] [(add9)] [C] [(add9)] [G] [G]  
 
 T-- --0----0----- --0----0----- --3----3----- --3----3-----
 --- --3-------3-- --3-------3-- --3-------3-- --3-------3--
 A-- --0---------- --0---------- --0---------- --0----------
 --- --2---------- --2---------- --0---------- --0----------
 B-- --3---------- --3---------- --2---------- --2----------
 --- ------------- ------------- --3---------- --3---------- 

[C] [(add9)] [C] [(add9)] [G] [G]  
 
 T-- --0----0----- --0----0----- --3----3----- --3----3-----
 --- --3-------3-- --3-------3-- --3-------3-- --3-------3--
 A-- --0---------- --0---------- --0---------- --0----------
 --- --2---------- --2---------- --0---------- --0----------
 B-- --3---------- --3---------- --2---------- --2----------
 --- ------------- ------------- --3---------- --3---------- 

INTRO (rythmique saturee) :
***************************
[D] [D+]  
 
 T-- ----------------------------------- ------------------------------------
 --- ------3-----3---3-----3-------3-0-- ------3-----3---3-----3-----3-0-----
 A-- ------2-----2---2-----2-------2-0-- ------3-----3---3-----3-----3--0-5--
 --- --0-0---0-0---0---0-0---0-0-0------ --0-0---0-0---0---0-0---0-0------3--
 B-- ----------------------------------- ------------------------------------
 --- ----------------------------------- ------------------------------------ 

[C] [A]  
 
 T-- ----------------------------------- ------------------------------------
 --- ----------------------------------- ------------------3-3-3-2----2-0----
 A-- ------5-----5---5-----5-------5-0-- ------2-----2-----2-2-2-2----2-0----
 --- ------5-----5---5-----5-------5-0-- ------2-----2-----4-2-4-2----2-0----
 B-- --------3-3---3---3-3---3-3-3------ --0-0---0-0---0-0-------------------
 --- ----------------------------------- ------------------------------------ 

[D] [D+]  
 
 T-- ----------------------------------- ------------------------------------
 --- ------3-----3---3-----3-------3-0-- ------3-----3---3-----3-------3-0---
 A-- ------2-----2---2-----2-------2-0-- ------3-----3---3-----3-------3-0---
 --- --0-0---0-0---0---0-0---0-0-0------ --0-0---0-0---0---0-0---0-0-0-------
 B-- ----------------------------------- ------------------------------------
 --- ----------------------------------- ------------------------------------ 

[C] [A]  
 
 T-- ----------------------------------- ------------------------------------
 --- ----------------------------------- ------------------3-3-3-2----2-0----
 A-- ------5-----5---5-----5-------5-0-- ------2-----2-----2-2-2-2----2-0----
 --- ------5-----5---5-----5-------5-0-- ------2-----2-----4-2-4-2----2-0----
 B-- --3-3---3-3---3---3-3---3-3-3------ --0-0---0-0---0-0-------------------
 --- ----------------------------------- ------------------------------------ 

Couplet
[D] [D+]  
 
 T-- ----------------------------------- ------------------------------------
 --- -----3-----3---3-----3-------3-0-- ------3-----3---3-----3-------3-0---
 A-- ------2-----2---2-----2-------2-0-- ------3-----3---3-----3-------3-0---
 --- -0-0---0-0---0---0-0---0-0-0------ --0-0---0-0---0---0-0---0-0-0-------
 B-- ----------------------------------- ------------------------------------
 --- ----------------------------------- ------------------------------------ 

[C] [A]  
 
 T-- ----------------------------------- ------------------------------------
 --- ----------------------------------- ------------------3-3-3-2----2-0---
 A-- ------5-----5---5-----5-------5-0-- ------2-----2-----2-2-2-2----2-0----
 --- ------5-----5---5-----5-------5-0-- ------2-----2-----4-2-4-2----2-0---
 B-- --3-3---3-3---3---3-3---3-3-3------ --0-0---0-0---0-0-------------------
 --- ----------------------------------- ------------------------------------ 

[C] [A]  
 
 T-- ----------------------------------- ------------------------------------
 --- ----------------------------------- -----------3------------------------
 A-- ------5-----5---5-----5-----5-0-2-- -----------2------------------2-----
 --- ------5-----5---5-----5-----5-0-2-- -----------4------------------2-----
 B-- --3-3---3-3---3---3-3---3-3-----0-- ---------0------------------0-0-----
 --- ----------------------------------- ------------------------------------ 

Refrain
[A] [D] [C] [G]  
 
 T-- ---------------------------------- ------------------------------------
 --- ---------------------------------- -----------------------------3-----
 A-- -----2--2-----2------------------- -----------7-5--------------5-0-----
 --- -----2--2-----2-----------3-0----- ----------7-5--------------5-0-----
 B-- -----0--0-0-3-----------------3-5- -----------5-3--------------3-2-----
 --- --------------------1-3-5--------- ------------------------------3----- 

[F] [D] [C] [G]  
 
 T-- -----3----------------------------- ------------------------------------
 --- -----3----------------------------- -----------------------------3------
 A-- -----0--------------------------7-- ------------5s7-7-5--5--5--5-0------
 --- -----0----------3---------3-0---7-- ------------5s7-7-5--5--5--5-0------
 B-- ----------------3-------------3-5-- ------------------3--3--3--3-2------
 --- --------------1-1---1-3-5---------- -----------------------------3------ 

[F] [D] [C] [D]  
 
 T-- -----3----------------------------- -----------------------------------
 --- -----3---------------------------- --3--------------------------------
 A-- -----0--------------------------7-- --0------------------------5-5-5-7-
 --- -----0----------3---------3-0---7- --0------------------------5-5-5-7-
 B-- ----------------3-------------3-5-- --2------------------------3-3-3-5-
 --- --------------1-1---1-3-5---------- --3--3-0-3-0-3-0-3-0-3-0-3--------- 

Break Refrain
[D] [C] [G]  
 
 T-- ---------------------------------- ------------------------------------
 --- ---------------------------------- -----------------------------3-----
 A-- ---------------------------------- -----------7-5--------------5-0-----
 --- -------------COUPLET-------------- ----------7-5--------------5-0-----
 B-- ---------------------------------- -----------5-3--------------3-2-----
 --- ---------------------------------- ------------------------------3----- 

[F] [D] [C] [G]  
 
 T-- -----3----------------------------- ------------------------------------
 --- -----3----------------------------- -----------------------------3------
 A-- -----0--------------------------7-- ------------5s7-7-5--5--5--5-0------
 --- -----0----------3---------3-0---7-- ------------5s7-7-5--5--5--5-0------
 B-- ----------------3-------------3-5-- ------------------3--3--3--3-2------
 --- --------------1-1---1-3-5---------- -----------------------------3------ 

[F] [D]  
 
 T-- -----3----------------------------- -----------------------------------
 --- -----3---------------------------- --3--------------------------------
 A-- -----0--------------------------7-- --0--------------------------------
 --- -----0----------3---------3-0---7- --0--------------------------------
 B-- ----------------3-------------3-5-- --2--------------------------------
 --- --------------1-1---1-3-5---------- --3--3-0-3-0-3-0-3-0-3-0-3-0-3-0--- 

Pont1
[C(add9)] [G] [C(add9)]  
 
 T-- ----0----------0------- ----3------------------ ----0----------0--------
 --- ----3-------------3---- ----3-------------3---- ----3-------------3-----
 A-- ----0------------------ ----0----------0------- ----0-------------------
 --- ----2------------------ ----0------------------ ----2-------------------
 B-- ----3------------------ ----2------------------ ----3-------------------
 --- ----------------------- ----3------------------ ------------------------ 

SOLO
G Break D C
 
 T-- --3--------3-------------------------------]----------------------------
 --- --3---------------3------------------------]----------------------------
 A-- --0----------------------------------------]--------------------7-5-----
 --- --0-----------------------------3-0--------]--------------------7-5-----
 B-- --2---------------------------------3-5-0~-]-0~~~~--------------5-3-----
 --- --3------------------1-3-5-----------------]----------------------------
 s T-- ------------------------------10--- ----------------13-------13-13------
 o --- --------------------------13--13--- -------------------13-13------------
 l A-- ----------------------------------- ------------------------------------
 o --- ----------------------------------- ------------------------------------
 B-- ----------------------------------- ------------------------------------
 --- ----------------------------------- ------------------------------------ 

C D Break
 
 r T-- ----------------------------------- ------------------------- ---------
 h --- ----------------------------------- ------------------------- ---------
 y A-- -------5--5--5-5---------------7--- --------------------7-5-- -ETC ...
 t --- -------5--5--5-5---------3-0---7--- --------------------7-5-- ---------
 m B-- -------3--3--3-3-------------3-5--- --------------------5-3-- ---------
 . --- -------------------1-3-5----------- ------------------------- ---------

[C] [D]  
 
 T-- -----------------------------5----- ------------7--7--------------------
 s --- --------------------------6--6----- ----------6-------6--------5--------
 o A-- ----------------------------------- -----7~~-------------7~~------------
 l --- ----------------------------------- ------------------------------------
 o B-- ----------------------------------- ------------------------------------
 --- ----------------------------------- ------------------------------------ 

[C] [D]  
 
 T-- ----------------------------------- -----------8------------------------
 s --- ----------------------------------- -----6-8-8---8-8---6-8-8~~-6-8------
 o A-- -----------------------------7~~--- ------------------------------------
 l --- ------7-6-5---7-5---5-------------- ------------------------------------
 o B-- ------------8-----8---5-5---------- ------------------------------------
 --- ----------------------------------- ------------------------------------ 

[C]  
 
 T-- ------------10-------------10-------------10---------------10-----------
 s --- ---------------13-10-13-13----13-10-13-13----13-10---13-13----13-10-----
 o A-- ------------------------------------------------------------------------
 l --- ------------------------------------------------------------------------
 o B-- ------------------------------------------------------------------------
 --- ------------------------------------------------------------------------ 

[D]  
 
 T-- -13-10----10------------------------------------------------------------
 s --- -------11----11-10-13-10----10------------------------------------------
 o A-- -------------------------12----12-10-12-10----10------------------------
 l --- -------------------------------------------12----12-10-12-10----10------
 o B-- -------------------------------------------------------------12----10---
 --- ----------------------------------------------------------------------13 

[s]o C D
 
 l T-- -------------------------------10-- ------10-----10---10-----10-----10-----
 o --- -------------------------------10-- ------10-----10---10-----10-----10-----
 + A-- --------------------------------7-- ----7----7-7----7----7-7----7-7----x-5-
 r --- ----------------------------------- -------------------------------------5-
 h B-- --10------------------------------- -------------------------------------3-
 y --- ----------------------------------- --------------------------------------- 

t
[C] [D]  
 
 T-- -------------------------------10-- ----10-----10---10-----10-----10-------
 --- -------------------------------10-- ----10-----10---10-----10-----10-------
 A-- ---(5)-(5)-(5)-(5)-(5)----------7-- --7----7-7----7----7-7----7-7----x-5---
 --- ---(5)-(5)-(5)-(5)-(5)------------- -----------------------------------5---
 B-- --x-2-x-3-x-2-x-3-x-2-x-3-x-x------ -----------------------------------3---
 --- ----------------------------------- --------------------------------------- 

[C] [C]  
 
 T-- ----------------------------------- ---------------------------------------
 --- ----------------------------------- ---------------------------------------
 A-- ------5-5-5-----5-----5-5-5-----5-- -----5-5-5-----5-----5-5-5-----7-------
 --- ------5-5-5-----5-----5-5-5-----5-- -----5-5-5-----5-----5-5-5-----7-------
 B-- ------3-2-3-0-2-3-----3-2-3-0-2-3-- -----3-2-3-0-2-3-----3-2-3-2-3-5-------
 --- ----------------------------------- --------------------------------------- 

pont2
[C(add9)]  
 
 T-- ---------------- ---------------- --0------0--------- --3------3---------
 --- ---------------- ---------------- --3-----------3---- --3-----------3----
 A-- -----COUPLET---- -----REFRAIN---- --0---------------- --0----------------
 --- ---------------- ---------------- --2---------------- --0----------------
 B-- ---------------- ---------------- --3---------------- --2----------------
 --- ---------------- ---------------- ------------------- --3---------------- 

[C(add9)] [G] [C(add9)] [G]  
 
 T-- --0-------0------ --3-------3------ ---0-------0------ ---3-------3--------
 --- --3-----------3-- --3-----------3-- ---3-----------3-- ---3-----------3----
 A-- --0-------------- --0-------------- ---0-------------- ---0----------------
 --- --2-------------- --0-------------- ---2-------------- ---0----------------
 B-- --3-------------- --2-------------- ---3-------------- ---2----------------
 --- ----------------- --3-------------- ------------------ ---3---------------- 

[C(add9)] [G] [C]  
 
 T-- --0-------0------ --3-------3------ -------------------------------------------------
 --- --3-----------3-- --3-----------3-- -------------------------------------------------
 A-- --0-------------- --0-------------- -------------------------------------------------
 --- --2-------------- --0-------------- -10-10-10-10-10-10-10-10-10-10-10-10-10-10-10-10-
 B-- --3-------------- --2-------------- -10-10-10-10-10-10-10-10-10-10-10-10-10-10-10-10-
 --- ----------------- --3-------------- --8--8--8--8--8--8--8--8--8--8--8--8--8--8--8--8- 

[G] [C]  
 
 T-- ------------------------------------ -------------------------------------------------
 --- ----------------------------------- -------------------------------------------------
 A-- ----------------------------------- -------------------------------------------------
 --- --5-5-5-5-5-5-5-5-5-5-5-5-5-5-5-5-- -10-10-10-10-10-10-10-10-10-10-10-10-10-10-10-10-
 B-- --5-5-5-5-5-5-5-5-5-5-5-5-5-5-5-5-- -10-10-10-10-10-10-10-10-10-10-10-10-10-10-10-10-
 --- --3-3-3-3-3-3-3-3-3-3-3-3-3-3-3-3-- --8--8--8--8--8--8--8--8--8--8--8--8--8--8--8--8- 

[G] [C]  
 
 T-- ----------------------------------- -------------------------------------------------
 --- ----------------------------------- -------------------------------------------------
 A-- ----------------------------------- -------------------------------------------------
 --- --5-5-5-5-5-5-5-5-5-5-5-5-5-5-5-5-- -10-10-10-10-10-10-10-10-10-10-10-10-10-10-10-10-
 B-- --5-5-5-5-5-5-5-5-5-5-5-5-5-5-5-5-- -10-10-10-10-10-10-10-10-10-10-10-10-10-10-10-10-
 --- --3-3-3-3-3-3-3-3-3-3-3-3-3-3-3-3-- --8--8--8--8--8--8--8--8--8--8--8--8--8--8--8--8- 

[G] [D] [C] [D] [C] [D] [C] [G]  
 
 T-- ----------------------------------- ------------------------ --------------------3---
 --- ----------------------------------- ------------------------ --------------------3---
 A-- --------------------------------7-- -----7-5----7-5----7-5-- --------------------0---
 --- --5-5-5-5-5-5-5-5---------3-0---7-- -----7-5----7-5----7-5-- --------------------0---
 B-- --5-5-5-5-5-5-5-5-------------3-5-- -----5-3----5-3----5-3-- --------------------2---
 --- --3-3-3-3-3-3-3-3---1-3-5---------- ------------------------ --------------------3--- 

Tu bosses toute ta vie pour payer ta pierre tombale,
Tu masques ton visage en lisant ton journal,
Tu marches tel un robot dans les couloirs du metro,
Les gens ne te touchent pas, il faut faire le premier pas,
Tu voudrais dialoguer sans renvoyer la balle,
Impossible d'avancer sans ton gilet pare-balle.
Tu voudrais donner des yeux a la justice
Imposssible de violer cette femme pleine de vices.
Antisocial, tu pers ton sang froid.
Repense a toutes ces annees de service.
Antisocial, bientot les annees de sevices,
Enfin le temps perdu qu'on ne rattrape plus.
Ecraser les gens est devenu ton passe-temps.
En les eclaboussant, tu deviens genant.
Dans ton desespoir, il reste un peu d'espoir
Celui de voir les gens sans fard et moins batards.
Mais cesse de faire le point, serre plutot les poings,
Bouge de ta retraite, ta conduite est trop parfaite
Releve la gueule, je suis la, t'es pas seul
Ceux qui t'enviaient, aujourd'hui te jugeraient.
Tu bosses toute ta vie pour payer ta pierre tombale,
Tu masques ton visage en lisant ton journal,
Tu marches tel un robot dans les couloirs du metro,
Les gens ne te touchent pas, il faut faire le premier pas,
Tu voudrais dialoguer sans renvoyer la balle,
Impossible d'avancer sans ton gilet pare-balle.
Tu voudrais donner des yeux a la justice
Imposssible de violer cette femme pleine de vices.
Antisocial, antisocial, antisocial, antisocial.
"ANTISOCIAL"
Paroles : Bernard Bonvoisin
Musique : Norbert Krief
LOOPING
( i1b06b@naniut.iut-nantes.univ-nantes.fr )
Avis a tous ceux qui parlent francais (mon anglais est trop pauvre) :
Voila , voila, je crois que la tablature est complete...
Si vous avez des questions, envoyez un E-Mail.
Encore un d?etail, il s'agit de la premiere tablature que j'envoie
et cela ne sera pas la derniere parce que l'on trouve tres tres peu de
tablatures de groupes ou chanteurs francais sous FTP.
alors si vous connaissez ou possedez des tablatures, n'h?esitez pas et...
....bon courage !
Si vous ne savez pas comment faire pour envoyer une tablature,
envoyer un E-Mail soit au site FTP ou ? moi-meme...
LOOPING
PS: Si quelqu'un possede la TAB de "Say it ain't so Joe" de Murray Head.
Je recherche aussi les TAB de Noir Desir.
Mille mercis d'avances...

Important: The song above is NOT stored on the Chordie server. The original song is hosted at tabfu.thudspace.net. Chordie works as a search engine and provides on-the-fly formatting. Chordie does not index songs against artists'/composers' will. To remove this song please click here.

Text color:
Chord color:
Chord grids: 
Font size:    
Page size: 

A C C(add9) D D+ F G
Rate #1 of 1 versions

Jango Player

Login - add to songbook

SHARE PAGE  



You need to log in to post comments