Guitar Tabs, Chords and Lyrics
Major upgrade!! After one year development the new version of Chordie is now online! Please give feedback.


The Refugee   U2

 
 E-x---------------------------------------------
 B-x---------------------------------------------
 G-x---------------------------------------------
 D--3/5--------------(3)-(3)-(3)-3/5---------
 A--1/3--------------(1)-(1)-(1)-1/3---------
 E--1/3--------------(1)-(1)-(1)-1/3---------

 


 


 Bridge:


 


 [(C)] [(C)] [(B)] [(C)] 


 

 
 E----------------------------------
 B--5-----5--5-5->3-3-->1----------
 G-----5-----5-5->3-3---0----------
 D-----------5-5->3-3-->2----------
 A----------------------3----------
 E---------------------------------


Important: The song above is NOT stored on the Chordie server. The original song is hosted at tabfu.thudspace.net. Chordie works as a search engine and provides on-the-fly formatting. Chordie does not index songs against artists'/composers' will. To remove this song please click here.

This song is displayed as text-only. Transposing and tuning is only available for chordpro-songs.
Rate #1 of 6 versions

Jango Player

Login - add to songbook

SHARE PAGE  



You need to log in to post comments