Guitar Tabs, Chords and Lyrics
Major upgrade!! After one year development the new version of Chordie is now online! Please give feedback.


Lovin' You Against My Will  Gary Allan

LOVIN' YOU AGAINST MY WILL (Jamie O'Hara)
performed by Gary Allan on SMOKE RINGS IN THE DARK (1999)
KEY OF F#, tune guitar down 1/2 step to Eb tuning
[G]I don't wanna hurt nobody
Don't wanna [Em]make nobody cry
[G]I don't wanna do wrong
[G]I don't wanna do wrong
[Em]I don't wanna tell no lies
I'm l[C]ovin' you, lovin' you against my [G]will
[C]Lovin' you, lovin' you against my [G]will
[G]I don't wanna hear the phone ring
Don't wanna [Em]hear your voice on the line
[G]I don't wanna come to you
[G]I don't wanna come to you
[Em]I don't wanna give in this time
Girl I'm [C]loving you, lovin' you against my [G]will
Your [Am]love is like a deep dark [G]river
[Am]Pullin' me out to s[G]ea
The h[Am]arder I try to [G]resist you
The [Am]weaker I seem to [D]be
[G]I don't wanna turn down your side street
[Em]I don't wanna pull in your drive
[G]Don't wanna see you standin' there
[G]Don't wanna see you standin' there
[Em]Don't wanna see that look in your eyes
[C]Girl I'm loving you, lovin' you against my [G]will
BRIDGE (GUITAR SOLO)
Your [Am]love is like a deep dark [G]river
[Am]Pullin' me out to s[G]ea
The h[Am]arder I try to [G]resist you
The [Am]weaker I seem to [D]be
[G]I don't wanna feel your heartbeat
[Em]I don't wanna taste your kiss
[G]I don't wanna call your name
[G]I don't wanna call your name
[Em]I don't wanna want you like this
Girl I'm [C]lovin' you, lovin' you against my [G]will
[C]Lovin' you, lovin' you against my w[G]ill
LOVIN' YOU AGAINST MY WILL, CHORD CHART
INTRO
[G] [G]  
VERSE 1
[G] [G] [Em] [Em] [G] [G] [Em] [Em] [C] [C] [G] [C] [C] [G] [G] 
VERSE 2
[G] [G] [Em] [Em] [G] [G] [Em] [Em] [C] [C] [G] [G] 
CHORUS
[Am] [G] [Am] [G] [Am] [G] [Am] [D]  
VERSE 3
[G] [G] [Em] [Em] [G] [G] [Em] [Em] [C] [C] [G] [G] 
BRIDGE
[G] [G] [Em] [Em] [C] [C] [G] [G]  
CHORUS
[Am] [G] [Am] [G] [Am] [G] [Am] [D]  
VERSE 4
[G] [G] [Em] [Em] [G] [G] [Em] [Em] [C] [C] [G] [C] [C] 
CODA
G G Em Em repeat and fade
GUITAR TAB
INTRO
___ ___
\
.
 
 ----------------- --------------------------------- ---------------
 --------10--10--- -8-----------8-----------8------- -5-------------
 -7---9---------\- /------------------------7-\----- /4-------------
 --\/------------- ---------------------------\----- /--------------
 ----------------- --------------------------------- ---------------
 ----------------- --------------------------------- --------------- 

LICKS
___ ___
\ \
 
 ------------12--- ----------------
 --------12------- ---------3---0--
 ----12----------- ----------\-/0--
 ----------------- -----2----------
 ----------------- ----------------
 ----------------- ---------------- 

harmonics
___ ___ ___ ___ ___
 
 --------------------------------- ---------------------------------
 --------10--10--10---8----------- -8---5-----------5---3-----------
 -7---9-----------9\-/7----------- -7\-/4-----------4\-/2---0-------
 --\-/-------------\-/------------ --\-/-------------\-/------------
 --------------------------------- ---------------------------------
 --------------------------------- --------------------------------- 

GUITAR SOLO
___ ___ ___ ___ _
_
 
 --------------------------------- ---------------------------------
 --------------------------------- ---------------------------------
 --------------------------------- ---------------------------------
 --------------------------------- ---------------------------------
 -0---0---0---0---0-----------0--- -----0-2-------------------------
 -------------------------3------- ------\/------------------------- 

___ ___ ___ ___
 
 --------------------------------- ---------------------------------
 --------------------------------- ---------------------------------
 --------------------------------- ---------------------------------
 --------------------------------- ---------------------------------
 -0---0---0---0------------------- -----------------------------2---
 -----------------3-------7------- -0---0------------------------\-- 

[/]  
___ ___ ___ ___ ___ ___ ___
 
 -----------------------------7--- 10---7-------7---7---------------
 ---------------------8----------- -8--------------------------10---
 -------------5---9--------------- -9---------------------------9---
 ---------5------/---------------- ---------------------------------
 -3---7--------------------------- ---------------------------------
 /---/---------------------------- --------------------------------- 

___ ___ ___ ___ ___ ___
 
 --------------------------------- ---------------------------------
 10---8-------8---8---5-------5--- -5---3---3---3-------------------
 -9\-/7-------7\-/7---4-------4--- -4\-/2---2---2---0---------------
 --\-/---------\-/---------------- --\-/----------------------------
 --------------------------------- ---------------------------------
 --------------------------------- --------------------------------- 

CODA
___ ___ ___ ___ _
_
 
 --------------------------------- ---------------------------------
 --------------------------------- ---------------------------------
 --------------------------------- ---------------------------------
 --------------------------------- ---------------------------------
 -0---0---0---0---0-----------0--- -----0-2-------------------------
 -------------------------3------- ------\/------------------------- 

___ ___ ___
 
 --------------------------------- ---------------------------------
 --------------------------------- ---------------------------------
 --------------------------------- ---------------------------------
 --------------------------------- ---------------------------------
 -0---0---0---0------------------- ---------------------------------
 -----------------3-------7------- -0---0--------------------------- 

-4- (pedal steel)
___ ___ ___
 
 --------------------------------- ---------------------------------
 --------10--10-----------8--10--- ----12---------------------------
 --------------------------------- ---/-----------------------------
 --------------------------------- ---------------------------------
 --------------------------------- ---------------------------------
 --------------------------------- --------------------------------- 

___ ___ ___ ___ ___ ___ ___ ___
 
 12--10--------------------------- ---------------------------------
 --------10--12-------8---7------- ---------------------------------
 --------------------9--------7--- -----9-------7--\----------------
 -------------------9------------- -9--/---\--/-----7---5---7---9---
 --------------------------------- --------------------------\-/----
 --------------------------------- --------------------------------- 


Important: The song above is NOT stored on the Chordie server. The original song is hosted at www.allcountrytabs.com. Chordie works as a search engine and provides on-the-fly formatting. Chordie does not index songs against artists'/composers' will. To remove this song please click here.

Text color:
Chord color:
Chord grids: 
Font size:    
Page size: 

Am C D Em G
Rate #1 of 1 versions

Login - add to songbook

SHARE PAGE  




You need to log in to post comments