Guitar Tabs, Chords and Lyrics
Major upgrade!! After one year development the new version of Chordie is now online! Please give feedback.


Yankee Doodle Dixie   Chet Atkins

 
 -0---- ------------------- -0---0---0----- -2---2---2---0-
 ----2- --------------2--3- -------------2- ---------------
 ------ .-2---2---2-------- --------------- ---------------
 ------ .------------------ --------------- ---------------
 ------ --0---0---2---4---- -0---4---2----- -0---0---2---4-
 ------ ------------------- -------------0- --------------- 

 


 


 [(4)] [(5)] [(6)] [(7)]  

 
 -2---0-----4-5-7- -9-----------5--- -5-----------0--- -0----------------
 ---------7------- ---------------5- ---------------2- -------------0--2-
 ----------------- ----------------- ----------------- ------------------
 ----------------- ----------------- ----------------- ------------------
 -0--------------- -0---0---2---4--- -5---4---2---0--- ------------------
 ---------0------- ----------------- ----------------- -4---0---2---4---- 

 


 


 (8)


 

 
 ---------0-----
 ------------2--
 -2---2--------.
 --------------.
 -0---0---------
 --------------- 


Important: The song above is NOT stored on the Chordie server. The original song is hosted at www.allcountrytabs.com. Chordie works as a search engine and provides on-the-fly formatting. Chordie does not index songs against artists'/composers' will. To remove this song please click here.

This song is displayed as text-only. Transposing and tuning is only available for chordpro-songs.
Rate #1 of 2 versions

Login - add to songbook

SHARE PAGE  



You need to log in to post comments