Guitar Tabs, Chords and Lyrics
Server problems seems to be fixed. Chordie has been experiencing problems with songs disappearing. These issues now seems to be fixed, but still verifying the fix. If you find anything strange, please email admin@chordie.com.


A Father's First Spring  The Avett Brothers

Capo IV
Listen for the walk ups
INTRO
 
 e ---------------------------------------------------------------
 B ---------------------------------------------------------------
 G ---4h5-4-0--4h5-4-0--4h5-4-0-4---0-4h5-4-0-4h5-4-0-4-----------
 D ---------------------------------------------------------------
 A ---------------------------------------------------------------
 E ---------------------------------------------------------------
 e ---------------------------------------------------------------
 B ---------------------------------------------------------------
 G -0-2/4-2-0-2--0-2-4-2-0----2-----------------------------------
 D -------------------------2-------------------------------------
 A ---------------------------------------------------------------
 E ---------------------------------------------------------------
 e ---------------------------------------------------------------
 B ---------------------------------------------------------------
 G --5-4-5/7-5-4-2-0----------------------------------------------
 D ---------------------------------------------------------------
 A ---------------------------------------------------------------
 E --------------------------------------------------------------- 

VERSE
[G]Sweetest surrender of winter
[G]She put up her flag, it is waving
[Am]The thunder of summer is rumbling in[G]
[G]And I haven't seen you in days
[G]And my, how that feeling has changed
Oh, I [Am]have been homesick for you since we met[G]
[Am]I have been homesick for you
INTRO
VERSE
[G]I've got to take to the sky
[G]And I'll tell you what that means for you and I
If I d[Am]ie it's for [G]you
If I d[Am]ie it's for [G]you
[C]I never lived 'til I l[G]ived in your light
And my[Am] heart never beat like it[C] does at the[D] sight
Of [C]you baby blue, God [G]blessed your life
[Am]I do not live 'less I[C] live in your l[G]ight
[Am]I do not live 'less I[C] live in your l[G]ight
 
 e ---------------------------------------------------------------
 B ---------------------------------------------------------------
 G ---4h5-4-0--4h5-4-0--4h5-4-0-4---0-4h5-4-0-4h5-4-0-4-----------
 D ---------------------------------------------------------------
 A ---------------------------------------------------------------
 E --------------------------------------------------------------- 

[G]The realest thing I ever felt
[G]Was the blood on the floor and the love in your yell
[Am]I was a child before[G]
[Am]The day that I met Eleanor
SOLO
 
 e --2/3-----2------------------3/5----3--------------------------
 B ------3-0---3-------------------5-1---3------------------------
 G --------------2-2/4----0-----------------4-5---4h5p4/2p0-------
 D -------------------------4-------------------------------------
 A ---------------------------------------------------------------
 E ---------------------------------------------------------------
 e --2/3-----2------------------3/5----3--------------------------
 B ------3-0---3-------------------5-1---3------------------------
 G --------------2-2/4----0-----------------4-5-4-5-7-5-4-0-------
 D -------------------------4-------------------------------------
 A ---------------------------------------------------------------
 E --------------------------------------------------------------- 

[G]Kiss of the wind in the hill
The clearness of morning, the late evening thrill
[Am]Blurry and gray like the roa[G]r
[Am]The wheels on the highway, above them I soa[G]r
[G]When I'm in the sweet daughter's eyes
[G]My heart is now ruined for the rest of all time
[Am]There's no part of it left to give[G]
[Am]There's no part of it left to give[G]
[C]I never lived 'til I l[G]ived in your light
And my[Am] heart never beat like it[C] does at the[D] sight
Of [C]you baby blue, God [G]blessed your life
[Am]I do not live 'less I[C] live in your l[G]ight
[Am]I do not live 'less I[C] live in your l[G]ight
[Am]I do not live [C] [G]
 
 e ---------------------------------------------------------------
 B ---------------------------------------------------------------
 G ---4h5-4-0-4h5-4-0-4h5-4-0-4-----------------------------------
 D ---------------------------------------------------------------
 A ---------------------------------------------------------------
 E --------------------------------------------------------------- 


Important: The song above is NOT stored on the Chordie server. The original song is hosted at www.allcountrytabs.com. Chordie works as a search engine and provides on-the-fly formatting. Chordie does not index songs against artists'/composers' will. To remove this song please click here.

Text color:
Chord color:
Chord grids: 
Font size:    
Page size: 

Am C D G
Rate #2 of 2 versions

Login - add to songbook

SHARE PAGE  



You need to log in to post comments