Guitar Tabs, Chords and Lyrics
Server problems seems to be fixed. Chordie has been experiencing problems with songs disappearing. These issues now seems to be fixed, but still verifying the fix. If you find anything strange, please email admin@chordie.com.


Feelin' the Feelin'  The Bellamy Brothers

INTRO: D Dsus4 Dsus2 D (2x)
It [D]started with a [Dsus2]smile and the [D]brush of your [Dsus4]hand
Then we [D]got a little [Dsus2]closer with a [D]slow slow [Dsus4]dance
Now the w[G]orld seems to spin around just for me and [D]you
It [D]took us by s[Dsus2]urprise when it [D]hit us in our [Dsus4]hearts
Such u[D]nbridled [Dsus2]passion from an [D]innocent [Dsus4]start
We were [G]stumped for a while but now we know what we're gonna [D]do
[A]Gonna make it last gonna make some dreams come t[D]rue (l[Dsus4]ick 1)
CHORUS:
We've been feelin' the [G]feelin, from the shine up a[D]bove
We've been steadily st[A]eelin' every moment we [G]can 'cause we can't get e[D]nough ([Dsus4]lick 1)
We've been feelin' the f[G]eelin', flyin' on the wings of a [D]dove
We've been feelin' the f[A]eelin', and the feelin' is [D]love
[Dsus2] [D] [Dsus4]  
Well the [D]clouds rolled [Dsus2]back and the [D]sun broke [Dsus4]thru
And the [D]earth seems to [Dsus2]move when I [D]whisper to [Dsus4]you
Darlin' [G]who woke up this feelin' from its lonely [D]sleep (lick 2)
[A]When I say I love ya, I mean I love ya [D]so deep (l[Dsus4]ick 1)
CHORUS (lick 1)
SOLO: G D Dsus2 D Dsus4 A D Dsus4
 
 --7------7--8------8--10------10/14- -12--10--
 -----10--------10---------10---------- ------ -
 -------------------------------------- --------
 ------------------------------------------ ----
 ------------------------------------------- ---
 ------------------------------------------- ---
 --7----7----- -7--h9--7-----7----7--7--h9-10---
 ----10---10- -----------10---10----------------
 ------------- -------------------------------- -
 ------------- ------------------------------- - -
 ------------- ----------------- ----------------
 ------------- - --------------------------------
 --9--7-----7----7----7----7-
 --------10---10---10---10- -
 -------------------------- --
 ----------------------- ----- And (lick 1)
 --------------------- -------
 -------------------- -------- 

CHORUS (2x)
Lick 1:
[D7]  
 
 -----------
 --1-0------
 ------2-0--
 -----------
 -----------
 ----------- 

Lick 2:
[A]  
 
 --0------0--
 ----3----2--
 ------2--2--
 ---------2--
 ---------0--
 ---------0-- 

(Thanks to Carlos (mackguy) for tabs)

Important: The song above is NOT stored on the Chordie server. The original song is hosted at www.allcountrytabs.com. Chordie works as a search engine and provides on-the-fly formatting. Chordie does not index songs against artists'/composers' will. To remove this song please click here.

Text color:
Chord color:
Chord grids: 
Font size:    
Page size: 

A D D7 Dsus2 Dsus4 G
Rate #1 of 1 versions

Login - add to songbook

SHARE PAGE  



You need to log in to post comments