Guitar Tabs, Chords and Lyrics
Major upgrade!! After one year development the new version of Chordie is now online! Please give feedback.


Cherokee Boogie  BR5-49

Intro:
Drums-----Bass(G)
[G]Well, A Cherokee chief as he dances along
[G]He does an Indian boogie to a [(G7)]white man's song
Singin' "[C]Hey-ho-a-lina" (Band Echo)
"[G]Hey-ho-a-lina" (Band Echo)
[D] [G]  
 
 A well a "hey-ho-a-lina wup-wup a-wittena-yea"

[G]Well, he dances over here and he dances over there
[G]And he keeps on a dancin' [(G7)]everywhere
Singin' "[C]Hey-ho-a-lina" (Band Echo)
"[G]Hey-ho-a-lina" (Band Echo)
[D] [G]  
 
 A well a "hey-ho-a-lina wup-wup a-wittena-yea"

Solo:
[G]  
 
 e------------------- ------------------- (play 2X)
 B-2/3-2/3----------- -2/3-2/3-----------
 G-3/4-3/4--0-----0-- -3/4-3/4--0-----0--
 D------------0-2---- ------------0-2----
 A------------------- -------------------
 E------------------- ------------------- 

[C]  
 
 e------------------- -------------------
 B-2/3-2/3----------- -2/3-2/3-----------
 G-2/3-2/3--0-----0-- -2/3-2/3--0-----0--
 D------------0-2---- ------------0-2----
 A------------------- -------------------
 E------------------- ------------------- 

[G]  
 
 e------------------- -------------------
 B-----5-----5------- -----5-----5-------
 G-3-4---3-4--------- -3-4---3-4----4----
 D------------------- -------------------
 A------------------- -------------------
 E------------------- ------------------- 

[D]  
 
 e------------------- -------------------
 B------------------- -------------------
 G-5--5-4-5-7-------- -7/12--12-5p3------
 D------------------- --------------5p3--
 A------------------- -------------------
 E------------------- ------------------- 

[G]  
 
 e------------------- -------------------
 B---2/3--2/3-------- -2/3--2/3----------
 G---3/4--3/4-------- -3/4--3/4----------
 D-5----------------- -------------------
 A------------------- -------------------
 E------------------- ------------------- 

[G]Well, he dances on the hill and he dances on the rock
[G]But he keeps on shaking that [(G7)]tomohawk
Singin' "[C]Hey-ho-a-lina" (Band Echo)
"[G]Hey-ho-a-lina" (Band Echo)
[D] [G]  
 
 A well a "hey-ho-a-lina wup-wup a-wittena-yea"

[G]Well, he sings to the hills and he sings to the clouds
[G]And he keeps on singin' so [(G7)]big and proud
A now "[C]Hey-ho-a-lina" (Band Echo)
"[G]Hey-ho-a-lina" (Band Echo)
[D] [G]  
 
 A well a "hey-ho-a-lina wup-wup a-wittena-yea"

Pedal Steel Solo:GGCGDG
[G]Well, he's a Cherokee cheif as a you might know
[G]And he keeps on sittin' singing "[(G7)]nuven-yo"
Now "[C]Hey-ho-a-lina" (Band Echo)
"[G]Hey-ho-a-lina" (Band Echo)
[D]  
 
 A well a "hey-ho-a-lina wup-wup a-wittena-yea"

[G]Well, A Cherokee chief as he dances along
[G]He does an Indian boogie to a [(G7)]white man's song
Singin' "[C]Hey-ho-a-lina" (Band Echo)
"[G]Hey-ho-a-lina" (Band Echo)
[D] [G]  
 
 A well a "hey-ho-a-lina wup-wup a-wittena-yea"


Important: The song above is NOT stored on the Chordie server. The original song is hosted at www.allcountrytabs.com. Chordie works as a search engine and provides on-the-fly formatting. Chordie does not index songs against artists'/composers' will. To remove this song please click here.

Text color:
Chord color:
Chord grids: 
Font size:    
Page size: 

C D G
Rate #1 of 2 versions

Login - add to songbook

SHARE PAGE  




You need to log in to post comments