Guitar Tabs, Chords and Lyrics
Songbooks are teporarily down. Dont panic. Working on recovering it. Dont save new songs in songbooks!


Mama, You've Been on My Mind  Johnny Cash

B.Dylan
Recorded 7/27-28/64
Key: C
INTRO:
C Am F C D G C G (muted......................)
 
 D---------2---------2-----3----2---------------------0---0---0---0---0---0-----
 A---0-2-3---2-1-0------3----3------------------2-0-----2-------2-------2-------
 E-3------------------1-----------3-----------------3-------3-------3-------3---

[G]Well when you [C]wake up in the mornin' baby look inside your mirror I won't be [Am]next to you
[Am]You [D]know I won't be [G]near
[G]I'd be [C]curious to know if you can [Am]see yourself as clear
[Am]As [D]someone who's [G]had you on his [C]mind [Am]Mama you've been [G]on my [C]mind
Muted:
[C] [G]  
 
 D--------0---0----0---0----0---0---
 A--2-0-----2--------2--------2-----
 E-------3-------3--------3-------3-

Well perhaps it's the wind and the dark dark night that's coverin'
The crossroads that I'm at
And maybe it's the weather-r-r somethin' like that
[Am]But [D]Mama you've been[G] on my[C] mind
BREAK:
[C] [Am] [F] [C] [D] [G] [C] 
 
 D---------2---------2-----3----2------------
 A---0-2-3---2-1-0------3----3---------------
 E-3------------------1-----------3----------

C Am F C D G C G (muted..............)
 
 D---------2---------2-----3----2---------------------0---0---0---0--
 A---0-2-3---2-1-0------3----3------------------2-0-----2-------2----
 E-3------------------1-----------3-----------------3-------3--------

Well I don't need trouble please don't put me down I am not pleading
Or sayin' I cannot forget
I do not pace the floor bowed down and bent but yet
Mama you've been on my mind
Muted:
[C] [G]  
 
 D--------0---0----0---0----0---0---0---0--
 A--2-0-----2--------2--------2-------2----
 E-------3-------3--------3-------3--------

Even though my mind is hazy and my thoughts they might narrow where you been don't bother me
Or bring me down with sorrow
It don't matter to me where you're wakin' up tomorrow
But Mama you've been on my mind
Muted:
[C] [G]  
 
 D--------0---0----0---0-
 A--2-0-----2--------2---
 E-------3-------3-------

When you wake up in the mornin' baby look inside your mirror I won't be next to you
You know I won't be near
I'd be curious to know if you can see yourself as clear
As someone who's had you on his mind
TRUMPETS: C Am G C
[Am]Mama you've been [G]on my [C]mind

Important: The song above is NOT stored on the Chordie server. The original song is hosted at www.allcountrytabs.com. Chordie works as a search engine and provides on-the-fly formatting. Chordie does not index songs against artists'/composers' will. To remove this song please click here.

Text color:
Chord color:
Chord grids: 
Font size:    
Page size: 

Am C D F G
Rate #1 of 1 versions

Login - add to songbook

SHARE PAGE  




You need to log in to post comments