Guitar Tabs, Chords and Lyrics
Login is temporarily disabled for some users. Do not panic. Will be back in an hour or two. DO NOT REREGISTER!!


Port of Lonely Hearts  Johnny Cash

By MrModigh.
(Written by John R. Cash and Jack Clement).
NC D
A ship came in but it was empty
and it s[A]ailed back out to sea a[D]gain.
Now there's the s[D]ail on the horizon
and now I w[A]ait until your ship comes [D]in.
And I'll be w[G]aiting in the port of lonely h[D]earts
w[A]atchin' for your topsail on the [D]sea.
Pray[G]in' that my ship of love will c[D]ome
to the p[A]ort of lonely hearts where I will [D]be.
GUITAR SOLO
 
 e -----------------------------------------------------------------
 b -----------------------------------------------------------------
 G ------------------------------------2---2---2---2---2--2---------
 D -----------0---0---0---0---0--0-2-4---4---4---4---4------4-0-----
 A ---0-0-2-4---0---0---0---0---------------------------------------
 E -----------------------------------------------------------------
 e -----------------------------------------------------------------
 b -----------------------------------------------------------------
 G -----------------------------------------------------------------
 D ------------------------------0---0---0---0---0------------------
 A ---4-0-4-0-4-0-4-0-4--0-0-2-4---0---0---0---0--------------------
 E ----------------------------------------------------------------- 

NC D
I'll brave the storm until you're with me
Cause the wind and r[A]ain can't change a love that's t[D]rue.
I'll be alone until you anchor
and then I'll l[A]eave this lonely port with [D]you.
Till then I'm w[G]aiting in the port of lonely h[D]earts
w[A]atchin' for your topsail on the s[D]ea.
Pray[G]in' that my ship of love will c[D]ome
to the p[A]ort of lonely hearts where I will [D]be.

Important: The song above is NOT stored on the Chordie server. The original song is hosted at www.allcountrytabs.com. Chordie works as a search engine and provides on-the-fly formatting. Chordie does not index songs against artists'/composers' will. To remove this song please click here.

Text color:
Chord color:
Chord grids: 
Font size:    
Page size: 

A D G
Rate #1 of 3 versions

Login - add to songbook

SHARE PAGE  




You need to log in to post comments