Guitar Tabs, Chords and Lyrics
Server problems seems to be fixed. Chordie has been experiencing problems with songs disappearing. These issues now seems to be fixed, but still verifying the fix. If you find anything strange, please email admin@chordie.com.


Some Days You Gotta Dance  Dixie Chicks

Intro notes
 
 ---------------
 --5-3-2-3-3----
 ---------------
 ---------------
 ---------------
 ---------------

Basic riff
 
 --------------------------------------------------
 --------------------------------------------------
 --------------------------------------------------
 ------------5-4-5-4-5-4--2-4-2-2-4--5-4-5-4-5-4---
 -2-4-2-2-4----------------------------------------
 --------------------------------------------------
 ------------------------------
 ------------------------------
 ------------------------------
 -1---1---2---2---4------------
 ---2---2---4---4--------------
 ------------------------------

It was about f[E]ive 'til five on Friday We were all getting ready to go
[(E)]And the boss man started screaming And his veins began to show
He said y[A]ou and you come with me 'Cause y[E]ou're gonna have to stay
My h[B7]eart was thumping I was jumping [A] [A] I had to get away
CHORUS:
[E]Some days you gotta dance Live it up when you get the chance
'Ca[A]use when the world don't make no sense
A[E]nd you're feeling just a little too tense
Gotta lo[B7]osen up those ch[A]ains and da[E]nce
Well I was tal[E]king with my baby Over a small glass of tea
[(E)]He asked the loaded question He said how do you feel about me
My mind was ra[A]cin' I was pacin' But the wo[E]rds just wouldn't come
And th[B]ere was only one thing left to do [A] [A] I feel it comin' on
Repeat chorus

Important: The song above is NOT stored on the Chordie server. The original song is hosted at www.allcountrytabs.com. Chordie works as a search engine and provides on-the-fly formatting. Chordie does not index songs against artists'/composers' will. To remove this song please click here.

Text color:
Chord color:
Chord grids: 
Font size:    
Page size: 

A B B7 E
Rate #1 of 4 versions

Login - add to songbook

SHARE PAGE  




You need to log in to post comments