Guitar Tabs, Chords and Lyrics
Update 25:10. 13:00. Site is back up running again. Songbooks are recovered. Woring on getting search back up..


Coyotes  Don Edwards

Intro(lead):
 
 ------------
 e -----------------------------------------
 B --7--10----7------------7-10-7-----7-----
 G --------9----7------7-9--------9~----7~--
 D ----------------9~-----------------------
 A -----------------------------------------
 E -----------------------------------------
 e ----------------------------------------------
 B ------7--7/10----7-----------7-10-7-----7-----
 G --7-9---------9----7-----7-9--------9~----7~--
 D ---------------------9~-----------------------
 A ----------------------------------------------
 E ---------------------------------------------- 

The intro chords are DAG(x4)
Verse:(x4)
 
 ----------

[D] [A] [G]  
 
 e ------------------------------3~--
 B --------7-------------------------
 G ----------7------6---------4------
 D -----7-------------7-----5--------
 A --5------------7-------5----------
 E -------------5-------3------------ 

Theres a cowboy I knew in south Texas
His face was burnt deep by the sun
Part history, part sage, part Mexican
He was there when Pancho Villa was young
Verse 2(x4):
 
 ------------

[D] [A] [G]  
 
 e -------------------5--------------7-5--3~--
 B -------7-----------5------------3----------
 G -------7-----------------------------------
 D ----7-----7----------7--------5------------
 A --5-------------7-----------5--------------
 E --------------5-----------3---------------- 

And he'd tell you a tail of the old days
When the country was wild all around
He'd sit out under the stars of the Milky Way
And hed listen as the coyotes howled and they go..
Chorus:
 
 -------

[D] [A] [G]  
 
 e -------------------5------------3--7-5--3~--
 B -------7-----------5------------3-----------
 G -------7------------------------------------
 D ----7-----7----------7--------5-------------
 A --5-------------7-----------5---------------
 E --------------5-----------3----------------- (x3)

Chorus End:
 
 -----------

[D] [A]  
 
 e -------------------5----
 B -------7-----------5----
 G -------7----------------
 D ----7-----7----------7--
 A --5-------------7-------
 E --------------5--------- 

[G] [A]  
 
 e --------3-------5--
 B -------------------
 G -------------------
 D ------5-------7----
 A ----5-------7------
 E --3-------5-------- 

Poo yip poo yip poo
Poodi hoo di yip poo di yip poo
Poo yip poo yip poo
Poo di hoo di yip poo di yip poo
Bridge 2:
 
 -------

Bm G' G
 
 e --------7-------7--------7-----------
 B ----------------------------------3--
 G -------------------------------------
 D ------9-------9--------5--------5----
 A ----9-------9--------5--------5------
 E --7-------7--------3--------3-------- 

[Em] [A]  
 
 e --------7-------7--------5---------5--
 B ----------------8---------------------
 G ------9-------9-----------------------
 D ----9-------9----------7---------7----
 A --7-------7----------7---------7------
 E -------------------5---------5-------- 

[Em] [D/F#]  
 
 e --------7-------7----------2-------2--
 B ----------------8--------3-------3----
 G ------9-------9--------2-------2------
 D ----9-------9-------------------------
 A --7-------7---------------------------
 E -------------------2---------2-------- 

G' G A
 
 e --------7---------------5-------------
 B ----------------3---------------------
 G --------------------------------------
 D ------5-------5-------7-------7-7-7---
 A ----5-------5-------7-------7-7-7-7---
 E --3-------3-------5-------5----------- 

Now the Longhorns are gone and the drovers are gone
The Comanche are gone and the out laws are gone
Geronimos gone and Sam Bass is gone
And the lion is gone and the red wolf is gone
Add Lyrics:
Well he cursed all the roads and the oil rigs
And he cursed the automobile
Said "this aint no place for an hombre like I am
In this new world of asphault and steel"
Then He'd look off some place in the distance
At somethin only he could see
Hed say "all thats left now of the old days
Are them damned ol' coyotes and me" and they go
Poo yip poo yip poo
Poo di hoo di yip poo di yip poo
Poo yip poo yip poo
Poo di hoo di yip poo di yip poo
And the Longhorns are gone and the drovers are gone
The Comanches are gone and the outlaw is gone
San Juati is gone, Quatro is gone
And the buffalo gone and the red wolf is gone
One mornin we searched his adobe
He disappeared without even a word
But that night as the moon crossed the mountains
One more coyote was heard and he'd go
Poo yip poo yip poo
Poo di hoo di yip poo di yip poo
Poo yip poo yip poo
Poo di hoo di yip poo di yip poo
Poo di hoo di yip poo di yip poo
Poo di hoo di yip poo di yip poo

Important: The song above is NOT stored on the Chordie server. The original song is hosted at www.allcountrytabs.com. Chordie works as a search engine and provides on-the-fly formatting. Chordie does not index songs against artists'/composers' will. To remove this song please click here.

Text color:
Chord color:
Chord grids: 
Font size:    
Page size: 

A D D/F# Em G
Rate #1 of 2 versions

Jango Player

Login - add to songbook

SHARE PAGE  



You need to log in to post comments