Guitar Tabs, Chords and Lyrics
Update 25:10. 13:00. Site is back up running again. Songbooks are recovered. Woring on getting search back up..


Hockey Skates  Kathleen Edwards

Capo: 3rd Fret - All transcription relative to capo
C (032010) D (xx0232)
Am (x02210) G (320033)
Intro: Lead guitar plays this while the second guitar picks individual notes of
the C, D, Am and G chords.
 
 e -----------------------3-2--------0-
 B ---------------------------3----3---
 G --2/4--4p2p0-----0---0--------------
 D ------------2--2---2----------------
 A ------------------------------------
 E ------------------------------------
 e -----------------------3-2---
 B ---------------------------3-
 G --2/4--4p2p0-----0---0-------
 D ------------2--2---2---------
 A -----------------------------
 E -----------------------------
 e ------------------2--2-0----------------
 B -3/5-5----5-5-5-3-----------1--0-----3--
 G ---------------------------------0-2----
 D --------------------------2-------------
 A ----------------------------------------
 E ---------------------------------------- 

Verse and Chorus: Rhythm guitar strums and picks chords, while lead plays fills at
the end of each vocal line, and at specified points.
[C]Going down in the same old town down the same [D]street to the same bar
[C]Same old faces saying ďHiĒ and I[D] donít care
[C]Going down in the same old bar tonight, [D]I don't even order anymore
[C]I am so sick of consequence and the [D]look on your face
[C]I am tired of playing defense, [D]I don't even have hockey skates
[C]Donít even have hockey [D]skatesÖ
You can [Am]meet me at ten thirty
[C]I won't even be there I'll be[G] gone[D]
We [Am]can talk like we are friends
[C]Going over it all again
You just [G]talking about everything I am doing [D]wrong
(Extended fill)
[C]Do you wish your nose was [D]longer
[C]So you'd have an excuse not to see [D]past it
[C]Do you wish that the lights, they were [D]brighter
in the city that you li[C]ve[D]
[C]I am so sick of consequence, [D]and the look on your face
And [C]Iím tired of playing defense
[D]I donít even have hockey skates[C]
[D]I donít even have hockey s[C]kates, Ohh[D]
You can [Am]meet me at ten thirty
[C]I won't even be there I'll be[G] gone[D]
We [Am]can talk like we are friends
[C]Going over it all again
You just [G]talking about everything I am doing [D]wrong
[Am]Do you think your boys club will cru[C]mble
Just bec[G]ause of a loud-mouthed g[D]irl?
Just because of a loud-mout[Am]hed girl[C] [G] [D]

Important: The song above is NOT stored on the Chordie server. The original song is hosted at www.allcountrytabs.com. Chordie works as a search engine and provides on-the-fly formatting. Chordie does not index songs against artists'/composers' will. To remove this song please click here.

Text color:
Chord color:
Chord grids: 
Font size:    
Page size: 

Am C D G
Rate #1 of 2 versions

Jango Player

Login - add to songbook

SHARE PAGE  



You need to log in to post comments