Guitar Tabs, Chords and Lyrics
Server problems seems to be fixed. Chordie has been experiencing problems with songs disappearing. These issues now seems to be fixed, but still verifying the fix. If you find anything strange, please email admin@chordie.com.


National Steel  Kathleen Edwards

D (xx0232)
Asus (x03320)
Em7 {022033)
_________________________________
 
 ----------------5--
 -3-----3p2---------
 ---2-2------2------
 -------------------
 -------------------
 -------------------
 --------- 

-2h3-3-2-
 
 ---2-3-2-
 ---------
 ---------
 --------- 

[D]What a surprise [Asus]wearing your disguise on the tel[Em7]ephone line
[D]I know it pleased you [Asus]to know I needed you an[Em7]d your time
[D]You play the game not [Asus]saying either way but you [Em7]know
You [D]could've made it real quick, [Asus]saved me the guilt trip and [Em7]just said no
 
 -------------------
 -------------------
 ---2h4-------------
 ---2h4-4-----------
 -2-2---------------
 ------------------- 

Are you writing this all [D]dow[Asus]n?[Em7]
Are you writing this all [D]dow[Asus]n?[Em7]
Down down down.
Down down down.
Oh…
 
 ---------------------0--------------------------------
 -3----3p2-2p0--0-0h2---0----3p2-2p0-------------------
 ---(0)---------------------------------(0)-2h4-2h4-0-- x2
 ------------------------------------------------------
 ------------------------------------------------------
 ------------------------------------------------------
 --2--2--------0--------0-----0-----
 -0------3---3---3h5-2---2-3---0----
 -----------------------------------
 -----------------------------------
 -----------------------------------
 -----------------------------------
 --0-0-0h2-2----------------0--------0----
 -------------0-3/5----5/2-3---3----------
 -----------------------------------------
 -----------------------------------------
 -----------------------------------------
 ----------------------------------------- 

And this c[D]onversation the a[Asus]lienation in your [Em7]tone
Well I've got [D]no fucking clue [Asus]from your point of view and your [Em7]time zone
I[D] wouldn't have asked, s[Asus]aved you the task if I [Em7]weren't for real
And now you’re just [D]trading a daughter (and) [Asus]two thousand dollars
For a [Em7]national steel
Are you writing this all [D]do[Asus]wn?[Em7]
Are you writing this al[D]l do[Asus]wn?[Em7]
Are you writing this al[D]l do[Asus]wn?[Em7]
Are you writing this al[D]l do[Asus]wn?[Em7]
Down down down.
Down down down.
Oh…
 
 ---------------------0---------------------------------
 -3----3p2-2p0--0-0h2---0-----3p2-2p0-------------------
 ---(0)-----------------------------------2h4-2h4-0-----
 -------------------------------------------------------
 -------------------------------------------------------
 -------------------------------------------------------
 -------------------0-0-------------------------------
 ----3p2-2p0--0-0h2------3-2h3p2-2-0-2/3-5-5----------
 -----------------------------------------------------
 -----------------------------------------------------
 -----------------------------------------------------
 -----------------------------------------------------
 --------------------0-----------------------------5--------
 -0-5/7--7-7/--1/3-3---2-(2)----2-3-5/7-7-7-7/2-2/3-2-2-2-3-
 -----------------------------------------------------------
 -----------------------------------------------------------
 -----------------------------------------------------------
 -----------------------------------------------------------
 ---------------0-------------------------------------------
 --3/7-7-7/-2/3---3--2h3p2-2h3p2p0----3-3-2---2-2h3p2h3p2-2-
 ---------------------------------0-------------------------
 ----------------------------------4------------------------
 -----------------------------------------------------------
 -----------------------------------------------------------
 ----------------------------------------------------------------
 -----------------------------------------------------------7----
 ------------------222-444-------------------------444-6467—-7-6-
 ------0045-0-2-4----------------0-02542--2h4-5-77---------------
 ----------------------------------------------------------------
 -3-3/7---------------------3-3/7--------------------------------
 -------------77----7---9----9----9----9-7-----7---5-7---
 -5/7-------------7---7--------------------7-7---7-------
 --------------------------------------------------------
 --------------------------------------------------------
 --------------------------------------------------------
 --------------------------------------------------------
 -----------------------------77---7---9----9----9----9-7-
 ---------------------------7----7---7--------------------
 ---7p6p4-6-77p6---7---0----------------------------------
 ----------------7----------------------------------------
 ---------------------------------------------------------
 ---------------------------------------------------------
 -------------------10---10---10-10-10-10---10-9-9-------------
 -----7-5/7~7~7~7-----7----7------------------------7----------
 --------------------------------------------------------------
 --------------------------------------------------------------
 --------------------------------------------------------------
 --------------------------------------------------------------
 -----10----10-10-9-9-9-9------------------9-10p9p7--------------
 -7/8~~~8~------------------8-8-7-7-7-7-7-----------10--7/5----5-
 ------------------------------------------------------------7---
 ----------------------------------------------------------------
 ----------------------------------------------------------------
 ----------------------------------------------------------------
 -----10-10---10-10^-10p9----------------------------------------------------
 -7-8---8----8---------------------------------------------------------------
 ---------------------------------0-2-2/4-4--4-4---0-2-2-2-2-----0-------2/4-
 ---------------------------2-24---------------------------------------0-----
 ------------------------------------------------------------------0h2-------
 ------------------------------------------------------------3/7------------- 


Important: The song above is NOT stored on the Chordie server. The original song is hosted at www.allcountrytabs.com. Chordie works as a search engine and provides on-the-fly formatting. Chordie does not index songs against artists'/composers' will. To remove this song please click here.

Text color:
Chord color:
Chord grids: 
Font size:    
Page size: 

Asus D Em7
Rate #1 of 1 versions

Jango Player

Login - add to songbook

SHARE PAGE  




You need to log in to post comments