Guitar Tabs, Chords and Lyrics
Major upgrade!! After one year development the new version of Chordie is now online! Please give feedback.


(Think About a) Lullaby  Merle Haggard

Norm Smith requested this in the last issue. This is how I hear it. This
is my first offering on COWPIE, so feel free to offer corrections or
suggestions. Thanks.
Think About A Lullaby
Merle Haggard
Transcribed by Van Christian (van@itexas.net)
[D]Think about a [G]lulla[D]by, think about a [G]lulla[D]by
[D]Baby close your [Bm]eyes don't [A7]cry, think about a lulla[D]by
[D]Let me sing you [G]off to [D]sleep, let daddy pray your [G]soul to [D]keep
[D]Its safe here with your [Bm]mom and [A7]I
Think about a lulla[D]by[D7]
[G]Think about a butterfly, [D]Think about a lullaby
[A7]Think about a cloud in the [D]sky.
[G]You can count your little sheep, but [D]babe you've got to go to sleep
Now [Bm]baby please don't you [A7]cry.
Think about a [G]lulla[D]by, Think about a [G]lulla[D]by
[D]Baby close your [Bm]eyes don't [A7]cry, Think about a lulla[D]by
SOLO:
 
 e ----0--2--5--7--7--5---- ----------0--3--3--2----
 B -3---------------------- -0--2--3----------------
 G ------------------------ ------------------------
 D ------------------------ ------------------------
 A ------------------------ ------------------------
 E ------------------------ ------------------------
 e -2--1--2--1--2--1--0---- -2--3--2--3--3--5--2--0-
 B ------------------------ ------------------------
 G ------------------------ ------------------------
 D ------------------------ ------------------------
 A ------------------------ ------------------------
 E ------------------------ ------------------------
 e ----5-------------------
 B -7--7-------------------
 G ----7-------------------
 D ------------------------
 A ------------------------
 E ------------------------ 

[G]Think about a lullaby, [D]Think about a butterfly,
[A7]Think about a cloud in the [D]sky.
[G]You can count your little sheep, but [D]babe you've got to go to sleep
Now [Bm]baby please don't you [A7]cry.
Think about a [G]lulla[D]by, Think about a [G]lulla[D]by
[D]Baby close your eyes don't [A7]cry, Think about a lulla[D]by

Important: The song above is NOT stored on the Chordie server. The original song is hosted at www.allcountrytabs.com. Chordie works as a search engine and provides on-the-fly formatting. Chordie does not index songs against artists'/composers' will. To remove this song please click here.

Text color:
Chord color:
Chord grids: 
Font size:    
Page size: 

A7 Bm D D7 G
Rate #1 of 3 versions

Login - add to songbook

SHARE PAGE  




You need to log in to post comments