Guitar Tabs, Chords and Lyrics
Update 25:10. 13:00. Site is back up running again. Songbooks are recovered. Woring on getting search back up..


Who's Your Daddy?  Toby Keith

Who's Your Daddy
Toby Keith
Capo 2nd
[G]Here you come knockin' on my door baby
[A7]Tell me what you got on your mind
I guess those co[C]llege boys all went [D]home for the s[G]ummertime[D]
[G]And you're lookin' right, lookin' good, lookin' like a woman should
[A7]So why is it so hard to find
C D G (G F# E ) run
down
A place to lay your pretty little head down once in a while
[Em]You run on a little tough luck baby
[A7]Don't you sweat it
[D]Everything is waiting inside for you
[G]You know I got it
[D]Come and get it
[G]Who's your daddy, [B7]who's your baby?
[C]Who's your buddy, [A7]who's your friend?
[D]And who's the one guy that you come runnin' to
[A7]When your lovelife starts [D]tumblin'?
[G]I got the money if you got [B7]the honey
[C]Let's cut a deal let's make [A7]a plan
[G]Who's your daddy, w[EM]ho's your baby?
[A7]Who's your buddy, [D]who's your man[G]?
You might've run on a little tough luck baby
Don't you sweat it
Everything is waiting inside for you
You know I got it
So come and get it
Who's your daddy, who's your baby?
Who's your buddy, who's your man?
e[+] [+] [+] [+] [+] [+] [+] [+] [+] [+] [+] [+] [+] [+] [+] [+]
 
 :----------------- ------------------- -------------------- ------------ 

[B]  
 
 :-2/3------------- --2/3-------------- --4/5--------------- ------------ 

[G]  
 
 :---3/4---5-4----- ----3/45--4------- -----4/5--7-6------- ------------ 

[D]  
 
 :------5-----5---- ---------5--------- ----------7-----7--- ---6-5------ 

[A]  
 
 :----------------- ------------------- -------------------- ------------ 

[E]  
 
 :----------------- ------------------- -------------------- ------------ 

[+] [+] [+] [+] [+] [+] [+] [+] [+] [+] [+] [+] [+] [+] [+] [+]  
 
 e :----------------- ----------------- ----------------- -----0-------0---
 B :----------------- ----------------- -7-6-5-3--------- -----------------
 G :----------------- ----------------- ----------------- -3/4-----3/4-----
 D :-----5-5--------- -7-5---5--------- -7-6-5-4--------- -----------------
 A :-5-7-----7------- -----7----------- ----------------- -----------------
 E :----------------- ----------------- ----------------- ----------------- 

[+] [+] [+] [+] [+] [+] [+] [+] [+] [+] [+] [+] [+] [+] [+] [+]  
 
 e :----------------- ----------------- ----------------- -----------------
 B :-7-6-5-3--------- ----------------- ----------------- -----------------
 G :----------------- ----------------- ----------------- -----------------
 D :-7-6-5-4--------- ----------------- ----------------- -----------------
 A :----------------- ----------------- ----------------- -----------------
 E :----------------- ----------------- ----------------- ----------------- 


Important: The song above is NOT stored on the Chordie server. The original song is hosted at www.allcountrytabs.com. Chordie works as a search engine and provides on-the-fly formatting. Chordie does not index songs against artists'/composers' will. To remove this song please click here.

Text color:
Chord color:
Chord grids: 
Font size:    
Page size: 

A A7 B B7 C D E Em Em G
Rate #1 of 4 versions

Login - add to songbook

SHARE PAGE  



You need to log in to post comments

RobShriver (report)

capo 2