Guitar Tabs, Chords and Lyrics
Server problems seems to be fixed. Chordie has been experiencing problems with songs disappearing. These issues now seems to be fixed, but still verifying the fix. If you find anything strange, please email admin@chordie.com.


Asking Too Much of You  The Marshall Tucker Band

The Marshall Tucker Band
>From the Album-"Together Forever"
1978
Written by Toy Caldwell
Tabbed by Ray Scheidler
Chords:
[Dmaj7] [F#7] [Gmaj7/A] [G6/A] [A7+5] [F#m7/C#] 
 
 E-----2------5------2--------------------2-----
 B-----2------4------3------3------6------2-----
 G-----2------5------4------4------6------2-----
 D------------4------5------5------5------2-----
 A----------------------------------------4-----
 E---------------------------------5------------

[Bm] [G] [Gm9] [G6] [Em7] [F#m7] 
 
 E-----2------3------5-------------4------5-----
 B-----3-------------3-------------4------5-----
 G-----4-------------3-------------5------6-----
 D-----4-------------3-------------3------4-----
 A-------------------5--------------------------
 E------------3------3------3-------------------

[Fm7] [A7] [A13] [D6/F#] [Em7] [A7sus] 
 
 E------4-------------2-------------------------
 B------4------2------2-------------3------3----
 G------5--------------------2------------------
 D------3------2------2-------------2------2----
 A----------------------------------2-----------
 E---------------------------2------------------

[D#m7] [GaddA] [Bbmaj7]  
 
 E------2-------5-------5-----------------------
 B------2-------3-------3-----------------------
 G------3-------4-------3-----------------------
 D------1-------5-------3-----------------------
 A----------------------------------------------
 E----------------------------------------------

Intro: Dmaj7 F#7 Gmaj7/A G6/A A7+5
[A7+5]If I ask[Dmaj7] you to [F#m7/C#]tell me
[Bm]'Bout the [F#7]man you've been s[G]een with
[Gm9]Most every [Dmaj7]day
[G6/A]And if I [Dmaj7]ask you to[F#m7/C#] tell me
[Bm]Why you're never at [F#7]home when I [G6/A]call you
In the [Gm9]middle of the[Dmaj7] day
And when I [G6]ask you to [F#7]tell me
[Dmaj7]Only the t[Em7]ruth
And that ain't [Dmaj7]asking[F#m7] [Fm7]too [Em7]much[A7] [A13]of y[Dmaj7]ou
[G6/A]And if I ask[Dmaj7] you to [F#m7/C#]tell me
[Bm]Why you got [F#7]someone to k[G]eep the kids
That S[Gm9]aturday I was [Dmaj7]gone
[G6/A]And if I[Dmaj7] ask you to[F#m7/C#] tell me
[Bm]Why that same Satur[F#7]day night it [G6/A]seems
You for[Gm9]got to come [Dmaj7]home
And when I [G6]ask you to [F#7]tell me
[Dmaj7]Only the t[Em7]ruth
And that ain't [Dmaj7]asking[F#m7] [Fm7]too [Em7]much[A7] [A13] of [Dmaj7]you[F#7]
[G]All I'd like to [D6/F#]know
[Em7]Is if you[A7] still[Dmaj7] care
And I d[G]on't think the [D6/F#]questions I'm [Em7]asking
Are by no means un[A7]fai[A7sus]r
[A7]And if I ask[Dmaj7] you to[F#m7/C#] tell me
[Bm]'Bout the [F#7]man you've been s[G]een with
[Gm9]Most every[Dmaj7] day
[G6/A]And if I[Dmaj7] ask you to[F#m7/C#] tell me
[Bm]Why you're never at [F#7]home when I [G6/A]call you
In the [Gm9]middle of the[Dmaj7] day
And when I [G6]ask you to [F#7]tell me
[Dmaj7]Only the t[Em7]ruth
And that ain't [Dmaj7]asking[F#m7] [Fm7]too [Em7]much [A7]
[A13]That ain't [Dmaj7]asking [F#m7] [Fm7]too [Em7]much[A7]
[D#m7]That ain't [Dmaj7]asking [F#m7]
[Fm7]Too m[Em7]uch [A13] of [Dmaj7]you[F#7] [GaddA] [Bbmaj7] [Dmaj7]

Important: The song above is NOT stored on the Chordie server. The original song is hosted at www.allcountrytabs.com. Chordie works as a search engine and provides on-the-fly formatting. Chordie does not index songs against artists'/composers' will. To remove this song please click here.

Text color:
Chord color:
Chord grids: 
Font size:    
Page size: 

A13 A7 A7+5 A7sus Bbmaj7 Bm D#m7 D6/F# Dmaj7 Em7 F#7 F#m7 F#m7/C# Fm7 G G6 G6/A GaddA Gm9 Gmaj7/A
Rate #1 of 1 versions

Login - add to songbook

SHARE PAGE  




You need to log in to post comments