Guitar Tabs, Chords and Lyrics
Server problems seems to be fixed. Chordie has been experiencing problems with songs disappearing. These issues now seems to be fixed, but still verifying the fix. If you find anything strange, please email admin@chordie.com.


Blue Ridge Mountain Sky  The Marshall Tucker Band

The Marshall Tucker Band
>From the Album-"A New Life"
[1974]Written by Toy Caldwell
Tabbed by Ray Scheidler
Chords:
[F] [C] [G] [Em] 
 
 E-----1-----------------------3-----------------
 B-----1-----------1-----------------------------
 G-----2-----------------------------------------
 D-----3-----------2--------------------2--------
 A-----------------3-----------2--------2--------
 E-----------------------------3-----------------

Intro/Main Fill:
[F] [C] [G]  
 
 E----------17----------------------------------
 B--18--20------20--17---------17--20--20---20--
 G---------------------19--17------19--19---19--
 E----------5-----------------------------------
 B---6---8-------8---5----------5---8---8----8--
 G----------------------7---5-------7---7----7--

[F] [C] [G]  
 
 E----------17----------------------------------
 B--18--20------20--17----------20--20--20--20--
 G---------------------19--17---19--19--19--19--
 E-----------5----------------------------------
 B---6---8-------8---5-----------8---8---8---8--
 G----------------------7---5----7---7---7---7--

[F] [C] [G]  
 
 E----------17----------------------------------
 B--18--20------20--17---------17--20--20---20--
 G---------------------19--17------19--19---19--
 E----------5-----------------------------------
 B---6---8-------8---5----------5---8---8----8--
 G----------------------7---5-------7---7----7--
 E----------------------------------------------
 B--18----------17-------------------------20---
 G-----------------------------19---------------

It's a l[G]onesome road and a h[F]ard way to live
But [C]it's the only life that I kn[G]ow
I meet some people a-tr[F]avelin' around
But h[C]ome's always the best place to g[G]o
And there's a l[F]onseome f[C]eeling in my m[G]ind
A f[F]eeling that I c[C]an't leave beh[G]ind
Carol[F]ina's where I'm [C]at and I'll [G]always hang my [Em]hat
F + Intro
Under those Blue Ridge Mountain skies
 
 D------------3----2----------------------------
 A------------------------3---0-----------------
 E----------------------------------------------

Well I g[G]ot me a w[F]oman back home
[C]She gave me a baby t[G]oo
And she stands by my l[F]oving side
And d[C]oes anything I ask her t[G]o
And there's a l[F]onesome f[C]eeling in my m[G]ind
A f[F]eeling I can't s[C]eem to leave beh[G]ind
Carol[F]ina's where I'm [C]at and I'll [G]always hang my [Em]hat
F + Intro
Under those Blue Ridge Mountain skies
 
 D-------------3---2----------------------------
 A------------------------3--0------------------
 E----------------------------------------------

G (Pickin' and Banjo)
There's an old man sittin' in a rocking chair
Who's got the best beagle dog in the county
I've been told
But his shotgun a-done got too rusty that old
Beagle dog he done grown a little too old
As he stares up into heaven
I'm sure I know the reason why
He's a-thinkin' about that promised land
In them Blue Ridge Mountain skies
And it's a l[F]onesome f[C]eeling in my m[G]ind
A f[F]eeling I can't s[C]eem to leave beh[G]ind
Carol[F]ina's where I'm [C]at and I'll [G]always hang my [Em]hat
F + Intro
Under those Blue Ridge Mountain skies
 
 D-------------3---2----------------------------
 A-----------------------3---0------------------
 E----------------------------------------------

Blue Ridge Mountain sk[F]ie[C]s [G] [F] [C] [G] [(F)]
 
 D--3---2---------------------------------------
 A------------3---0-----------------------------
 E----------------------------------------------


Important: The song above is NOT stored on the Chordie server. The original song is hosted at www.allcountrytabs.com. Chordie works as a search engine and provides on-the-fly formatting. Chordie does not index songs against artists'/composers' will. To remove this song please click here.

Text color:
Chord color:
Chord grids: 
Font size:    
Page size: 

C Em F G
Rate #1 of 1 versions

Login - add to songbook

SHARE PAGE  



You need to log in to post comments