Guitar Tabs, Chords and Lyrics
Server problems seems to be fixed. Chordie has been experiencing problems with songs disappearing. These issues now seems to be fixed, but still verifying the fix. If you find anything strange, please email admin@chordie.com.


Bound and Determined  The Marshall Tucker Band

The Marshall Tucker Band
>From the Album-"Searchin' For A Rainbow"
[1975]Written by Toy Caldwell
Tabbed by Ray Scheidler
Chords:
[Am] [F7] [E7]  
 
 E------------------------1---------------------
 B-------------1----------1---------------------
 G-------------2----------2----------1----------
 D-------------2----------1---------------------
 A------------------------3----------2----------
 E------------------------1---------------------

Intro/Main Rhythm:
[Am] [Am] [Am] [Am] [Am] [Am]  
 
 E----------5-------3--3----------5-------3--3--
 B------5-------5--------------5------5---------
 G--2----------------------2--------------------
 D----------------------------------------------
 A----------------------------------------------
 E----------------------------------------------

Am (w/Main-Rhythm)
Well she's bound and determined
To make a fool out of me
Yeah she's bound and determined
To keep me in misery
Yeah she's b[F7]ound and det[E7]ermined
Lord 'cause s[F7]he's that kind of w[E7]oman
Gonna make a fool out of [Am]me
Riff #2:
[Am]  
 
 E----------------------------------------------
 B---------------4---3---1-----------------1----
 G---2---0---2---------------2-----0---2--------
 D----------------------------------------------
 A----------------------------------------------
 E----------------------------------------------

[Am]  
 
 E----------------------------------------------
 B---------------4---3---1-----------------1----
 G---2---0---2---------------2-----0---2--------
 D----------------------------------------------
 A----------------------------------------------
 E----------------------------------------------

Am (w/Main-Rhythm)
Don't know why I been trying
To put up with all her lying
I can't help but denying
She's trying to make a fool out of me
Well she's b[F7]ound and det[E7]ermined
Lord 'cause sh[F7]e's that kind of w[E7]oman
Am + Riff #2
Gonna make a fool out of me
She t[E7]ells me that s[F7]he loves me
And she t[E7]ells me all t[F7]he time
That w[E7]oman I got l[F7]ord
'Bout to m[E7]ake me lose my m[Am]ind
Lead over Riff #2 to fade

Important: The song above is NOT stored on the Chordie server. The original song is hosted at www.allcountrytabs.com. Chordie works as a search engine and provides on-the-fly formatting. Chordie does not index songs against artists'/composers' will. To remove this song please click here.

Text color:
Chord color:
Chord grids: 
Font size:    
Page size: 

Am E7 F7
Rate #1 of 1 versions

Login - add to songbook

SHARE PAGE  




You need to log in to post comments