Guitar Tabs, Chords and Lyrics
Server problems seems to be fixed. Chordie has been experiencing problems with songs disappearing. These issues now seems to be fixed, but still verifying the fix. If you find anything strange, please email admin@chordie.com.


Heard It in a Love Song  The Marshall Tucker Band

The Marshall Tucker Band
>From the Album-"Carolina Dreams"
[1977]Written by Toy Caldwell
Tabbed by Ray Scheidler
Chords:
[D] [F#m] [A] [G] 
 
 E--------2----------2-------------------3------
 B--------3----------2----------2---------------
 G--------2----------2----------2---------------
 D-------------------4----------2---------------
 A---------------------------------------2------
 E---------------------------------------3------

Flute:
[D] [F#m]  
 
 E--10----10\7---------7------------------------
 B---------------10---------7--------------6/7--
 G--------------------------------9----7--------
 D----------------------------------------------
 A----------------------------------------------
 E----------------------------------------------

[G] 
 
 E----------------------------------------------
 B---10----7--10/12---------10-----------7---8--
 G--------------------11-----------9------------
 D----------------------------------------------
 A----------------------------------------------
 E----------------------------------------------
 E----------------------------------------------
 B---10----8----7-------------------------------
 G------------------7------------7-----------7--
 D----------------------7----9--------7--9------
 A----------------------------------------------
 E----------------------------------------------

Guitar:
[D]  
 
 E--7--5----------------------------------------
 B--------6-----5-------------------------------
 G-----------7-----7--4------------4------------
 D-----------------------7--4---7---------------
 A-------------------------------------7--5-----
 E-------------------------------------------5--

I ain't n[D]ever been with a woman long enough
[F#m]For my boots to get old
B[G]ut we've been together so long now
That they b[D]oth need resoled
If I ever settle down
[F#m]You'd be my kind
And that's a go[G]od time for me
To h[A]ead on down the l[D]ine
Heard it in a l[D]ov[A]e s[G]ong
Heard it in a l[D]ov[A]e s[G]ong
Heard it in a l[D]ov[A]e s[G]ong
Can't be wr[D]ong[F#m]
 
 E-------------------------------10--9--9--9---7-
 B---------------------------7---12-10-10-10---8-
 G--------------------7--9-----------------------
 D-------------7--9------------------------------
 A-----------------------------------------------
 E-----------------------------------------------

[G] [D] 
 
 E----5-----3------------------------------2-----
 B----7-----5-----3----5-----5/7-----3-----------
 G-----------------------------------------2-----
 D----------------4----5-----5/7-----4-----------
 A-----------------------------------------------
 E-----------------------------------------------
 E------7------5------7------5-------------------
 B----------------------------------6\3----------
 G-----------------------------------------------
 D-----------------------------------------3/4---
 A-----------------------------------------------
 E-----------------------------------------------

[D]I'm the kind of man
 
 E-----------------------------------------------
 B---------------------------------3----5---2----
 G------------------------2---4------------------
 D--------------------4--------------------------
 A-----------------------------------------------
 E-----------------------------------------------

[F#m]Who likes to get away
 
 E-----------------------------------2-----------
 B---------------------2---3----5----------------
 G-----------------------------------------------

L[G]ike to start dreamin' 'bout tom[D]orrow today
 
 E------12----10----9----------------------------
 B----12-----------------12----10----------------
 G--12--------------------------------12--11-----

[D]Never said that I loved you
Even t[F#m]hough it's so
Where's that d[G]uffel bag of m[A]ine
It's time to g[D]o
 
 E---------------7---5---7---5--------------------
 B------------------------------6-----------------
 G----------------------------------7---------7---
 D--------------------------------------3/4-------
 A------------------------------------------------
 E------------------------------------------------

Heard it in a l[D]ov[A]e s[G]ong
Heard it in a l[D]ov[A]e s[G]ong
Heard it in a l[D]ov[A]e s[G]ong
Can't be wr[D]ong[F#m]
 
 E----------------------12---10--10---10---9---9--
 B------------------10----------------12--10--10--
 G---------------11-------------------------------
 D------------12----------------------------------
 A------------------------------------------------
 E------------------------------------------------

[G] [D]  
 
 E--9--10--12--10---9-------------5--7--5---------
 B-10--12------12--10----10--8--5---------6-------
 G-----------------------11--9--6-----------------
 D--------------------9---------------------7-----
 A--------------------------------------------3/4-
 E------------------------------------------------

[D] [F#m]  
 
 E--10--------7-------7---------------------------
 B-------10------10-------7-----------7---10----7-
 G----------------------------9---7---------------
 D------------------------------------------------
 A------------------------------------------------
 E------------------------------------------------

[G]  
 
 E--7--------------7----7--5---7------------------
 B------7--10----------------------7--------------
 G--------------------------------------9---7---9-
 D------------------------------------------------
 A------------------------------------------------
 E------------------------------------------------

[D]  
 
 E--------------------------------10--10--10---9--
 B-----------7---8--7-----------------------------
 G---7---9---------------7------------------------
 D----------------------------7-------------------
 A------------------------------------------------
 E------------------------------------------------

[F#m]  
 
 E--9-10-9---7------------------------------------
 B---------------10--10----12-10------10----12----
 G--------------------------------11-----------11-
 D------------------------------------------------
 A------------------------------------------------
 E------------------------------------------------

[G] [D] 
 
 E------------------------------------------------
 B----7--8--10--8--7------------------------------
 G--9-----------------7------------7----------7---
 D-----------------------7---9--------7--9--------
 A------------------------------------------------
 E------------------------------------------------

[D] [A] [G]  
 
 E------------------------------------------------
 B----------------7---8--10---8---7---------------
 G---------7--9------------------------------7--9-
 D--7--9-------------------------------7--9-------
 A------------------------------------------------
 E------------------------------------------------

[D] [A] [G]  
 
 E------------------------------------------------
 B------7---8--10---7---12--8--(8)----------------
 G--9----------------------------------7--9--7--9-
 D----------------------------------9-------------
 A------------------------------------------------
 E------------------------------------------------

[D] [A] [G] [D] 
 
 E------------------------------------------------
 B---7----8---10---8---7--------------------------
 G-----------------------------------------7----7-
 D---------------------------------7---9----------
 A------------------------------------------------
 E------------------------------------------------

[D]I'm a-gonna be leavin'
[F#m]At the break of dawn
W[G]ish you could come but I don't need
No w[D]oman taggin' along
G[D]onna sneak out that door
Couldn't [F#m]bear to see you cry
I'd stay an[G]other year if I saw
A te[A]ardrop in your [D]eye
Heard it in a l[D]ov[A]e s[G]ong
Heard it in a l[D]ov[A]e s[G]ong
Heard it in a l[D]ov[A]e s[G]ong
Can't be wr[D]ong[F#m] [G] [A] [D]
N[D]ever had a damn thing but what I had
[F#m]I had to leave it behind
Y[G]ou're the hardest thing I ever
Tr[D]ied to get off of my mind
[D]Always something greener
On the [F#m]other side of that hill
I was born a wr[G]angler and a rounder
And I g[A]uess I always w[D]ill
Heard it in a l[D]ov[A]e s[G]ong
Heard it in a l[D]ov[A]e s[G]ong
Heard it in a l[D]ov[A]e s[G]ong
Can't be wr[D]ong
(Flute)
(Guitar)
[D] [F#m]  
 
 E------------------------------------------------
 B---------7--8--10--8---7-8--10------------------
 G--7--9-------------------------------9--9-------
 E------------------------------------------------
 B-------------------------------------------7--9-
 G-------------------------------------7--9-------
 D-------------------------------7--9-------------
 A------------------------------------------------
 E------------------------------------------------

[G]  
 
 E------------------------------------------------
 B-----------10---10---7----7---8---8/10---10-8-7-
 G------------------------------------------------
 E------------------------------------------------
 B--7--8--7---7----7------------------------------
 G---------------------7--------7---9/11----9--7--
 D--------------------------9---------------------
 A------------------------------------------------
 E------------------------------------------------

[D] [D] [A] [D] 
 
 E---7--------------------------------------------
 B-7---------------------------------------7--(7)-
 G-------------------------------------9----------
 E---7-------7------------------------------------
 B-----6--7-----6---------------------------------
 G-----------------7---7------7------------7--(7)-
 D------------------------7-----------------------
 A--------------------------------7---7/9---------
 E------------------------------------------------


Important: The song above is NOT stored on the Chordie server. The original song is hosted at www.allcountrytabs.com. Chordie works as a search engine and provides on-the-fly formatting. Chordie does not index songs against artists'/composers' will. To remove this song please click here.

Text color:
Chord color:
Chord grids: 
Font size:    
Page size: 

A D F#m G
Rate #1 of 6 versions

Login - add to songbook

SHARE PAGE  




You need to log in to post comments