Guitar Tabs, Chords and Lyrics
Server problems seems to be fixed. Chordie has been experiencing problems with songs disappearing. These issues now seems to be fixed, but still verifying the fix. If you find anything strange, please email admin@chordie.com.


I'll Be Loving You  The Marshall Tucker Band

I'll Be Loving You
The Marshall Tucker Band
>From the album-"Together Forever"
1978
Written by Toy Caldwell
Tabbed by Ray Scheidler
Intro: Scratch these bar chords over intro riff
[D5] [C5] [D5] [C5] 
 
 E--------------------------------------------------
 B--------------------------------------------------
 G--------------------------------------------------
 D--7-7-7-7--7-7----5-5-5-5--5-5---7-7-7-7--5-5-5-5-
 A--5-5-5-5--5-5----3-3-3-3--3-3---5-5-5-5--3-3-3-3-
 E--------------------------------------------------

Intro/Main Riff:
 
 E------------------7-------------------------------
 B-------------7---------10----7-----------7----9---
 G---7----9--------------------------10-------------
 D--------------------------------------------------
 A--------------------------------------------------
 E--------------------------------------------------
 E------------------7-------------------------------
 B-------------7---------10----7-----------7----9---
 G---7----9--------------------------10-------------
 D--------------------------------------------------
 A--------------------------------------------------
 E--------------------------------------------------

When the m[D5]orning sun melts the m[C5]orning dew
I'll be loving y[D5]ou
When the [D5]evening sun tells me the d[C5]ay is done
I'll be loving y[D5]ou
And [C5]I'll be loving y[D5]ou
Unt[C5]il my dying d[D5]ay
And [C5]I'll be loving y[D5]ou
C5 D5 (w/Main Riff)
Just an old fool set in my ways
Alth[D5]ough it seems that you are [C5]in my dreams
'Cause I'll be loving y[D5]ou
Someh[D5]ow I know it really g[C5]ot to show
'Cause I'll be loving y[D5]ou
And [C5]I'll be loving y[D5]ou
Unt[C5]il my dying d[D5]ay
And [C5]I'll be loving y[D5]ou
C5 D5 (w/Main Riff)
Just an old fool set in my ways
Solo: D5 C5 D5 C5 D5 C5 D5 C5 > Main Riff
It would m[D5]ean the same if you never kn[C5]ew my name
'Cause I'll be loving y[D5]ou
When the m[D5]orning sun melts the m[C5]orning dew
I'll be loving y[D5]ou
And [C5]I'll be loving y[D5]ou
Unt[C5]il my dying d[D5]ay
And [C5]I'll be loving y[D5]ou
C5 D5 (w/Main Riff)
Just an old fool set in my ways
D5 (w/Main Riff)
Set in my ways
D5 (w/Main Riff) End on D5
Set in my ways

Important: The song above is NOT stored on the Chordie server. The original song is hosted at www.allcountrytabs.com. Chordie works as a search engine and provides on-the-fly formatting. Chordie does not index songs against artists'/composers' will. To remove this song please click here.

Text color:
Chord color:
Chord grids: 
Font size:    
Page size: 

C5 D5
Rate #1 of 2 versions

Login - add to songbook

SHARE PAGE  



You need to log in to post comments