Guitar Tabs, Chords and Lyrics
Server problems seems to be fixed. Chordie has been experiencing problems with songs disappearing. These issues now seems to be fixed, but still verifying the fix. If you find anything strange, please email admin@chordie.com.


Love Is a Mystery  The Marshall Tucker Band

The Marshall Tucker Band
>From the Album-"Together Forever"
1978
Written by Toy Caldwell
Tabbed by Ray Scheidler
Chords:
[A] [Esus12] [F] [D] 
 
 E----------------2--------1---------2-----------
 B-------2--------3--------1---------3-----------
 G-------2-----------------2---------2-----------
 D-------2--------2--------3---------------------
 A-----------------------------------------------
 E-----------------------------------------------

Intro And Rhythm Pattern:
[A] [Esus12]  
 
 E-------------------------------2---2-----------
 B------------------2---2--2-----3---3-----------
 G------------------2---2--2---------------------
 D------------------2---2--2-----2---2-----------
 A---------0---2-----------------------------0--2
 E--0--2--------------------------------0--2-----

[A] [Esus12]  
 
 E--------------------------2----2----2---2------
 B----2----2----2---2-------3----3----3---3------
 G----2----2----2---2----------------------------
 D----2----2----2---2-------2----2----2---2------
 A-----------------------------------------------
 E-----------------------------------------------

[A]Yes I'll[Esus12] answer your q[A]ues[Esus12]tions[A]
I've answered them[Esus12] many times bef[A]or[Esus12]e
[A]The answer[Esus12] is I th[A]ink I [Esus12]love you
So would you [A]answer these [Esus12]questions of m[A]in[Esus12]e
Y[A]ou see I've [Esus12]never been in l[A]ove be[Esus12]fore
Th[A]is is [Esus12]somehow new to m[A]e[Esus12]
[A]My heart's feeling [Esus12]something all n[A]ew in[Esus12]side
I say l[F]ove is a m[D]yster[A]y.[Esus12].....I say l[F]ove is a [D]myster[A]y
[A]Am I [Esus12]falling in l[A]ove with you
Somehow[Esus12] in my heart I hope...I re[A]ally do
Just by [Esus12]knowing that it's me and it's r[A]eally you
I'm just f[F]alling in l[D]ove with y[A]ou[Esus12]
I'm just f[F]alling in l[D]ove with y[A]ou[Esus12]
[A]I hope you [Esus12]don't think you're gonna ch[A]ange my[Esus12] way
Th[A]at's just [Esus12]something I'd never d[A]o[Esus12]
B[A]ut I'[Esus12]d do most [A]any[Esus12]thing
To f[F]all in l[D]ove with y[A]ou[Esus12]
Just to f[F]all in l[D]ove with y[A]ou[Esus12]
[A]Am I [Esus12]falling in l[A]ove with you
Somehow[Esus12] in my heart I hope...I re[A]ally do
It's by [Esus12]knowing that it's me and it's re[A]ally you
I'm just f[F]alling in l[D]ove with y[A]ou
I'm just f[F]alling in l[D]ove with y[A]ou[Esus12] [A] [Esus12] [A]

Important: The song above is NOT stored on the Chordie server. The original song is hosted at www.allcountrytabs.com. Chordie works as a search engine and provides on-the-fly formatting. Chordie does not index songs against artists'/composers' will. To remove this song please click here.

Text color:
Chord color:
Chord grids: 
Font size:    
Page size: 

A D F
Rate #1 of 1 versions

Login - add to songbook

SHARE PAGE  



You need to log in to post comments