Guitar Tabs, Chords and Lyrics
Server problems seems to be fixed. Chordie has been experiencing problems with songs disappearing. These issues now seems to be fixed, but still verifying the fix. If you find anything strange, please email admin@chordie.com.


Property Line  The Marshall Tucker Band

The Marshall Tucker Band
>From the Album-"Long Hard Ride"
[1976]Written by Toy Caldwell
Tabbed by Ray Scheidler
Chords:
[A] [D] [G]  
 
 E-----------------------2----------3---------
 B------------2----------3--------------------
 G------------2----------2--------------------
 D------------2-------------------------------
 A--------------------------------------------
 E--------------------------------------------

[A] [A] [G] [G] 
 
 E--------------------------------------------
 B--------------------------------------------
 G--2----------2----------0----------0--------
 D------2--4-------2--4-------0--2-------0--2-
 A--------------------------------------------
 E--------------------------------------------

Well m[A]y idea of a g[D]ood time
Is w[A]alkin' my property l[D]ine
And kn[A]owin' the mud [D]on my boots is m[A]ine[D]
W[A]atchin' them l[D]eaves t[A]urnin' from green to g[D]old
There ain't n[A]o way in this w[D]orld
That can make a m[A]an feel [D]old
That's when I get l[A]ovin' [G]on my m[A]in[D]d[A] [D]
I get l[A]ovin' [G]on my m[A]in[D]d[A] [D]
And if s[A]omeone wants to kn[G]ow
Why I'm a-h[A]urryin' all the t[D]ime
You just t[A]ell 'em I got l[G]ovin'
[A]Oh sweet l[G]ovin' t[A]ell 'em
I got l[G]ovin' on my m[A]ind[G] [A]
[G]Well there's tw[A]o things I think are pr[D]etty
One's a bl[A]ack Arabian m[D]are and the [A]other
One is a w[D]oman who you c[A]an't stand to st[D]are at
[A]Ah when that h[D]appens I get w[A]eak at both kn[D]ees
If I'm o[A]ut a-choppin' w[D]ood
I leave the [A]ax in the tr[D]ee 'cause I get
L[A]ovin' [G]on my m[A]ind[D] [A]
[D]I get l[A]ovin' [G]on my m[A]ind[D] [A]
And if s[A]omeone wants to kn[G]ow
Why I'm a-h[A]urryin' all the t[D]ime
You just t[A]ell 'em I got l[G]ovin'
[A]Oh sweet l[G]ovin' t[A]ell 'em
I got l[G]ovin' on my m[A]ind[G] [A] [G]
Just t[A]ell 'em I got l[G]ovin'
[A]Oh sweet l[G]ovin' t[A]ell 'em
I got l[G]ovin' on my m[A]ind[G]
M[A]y idea of a g[D]ood time
Is w[A]alkin' my property [(D)]line

Important: The song above is NOT stored on the Chordie server. The original song is hosted at www.allcountrytabs.com. Chordie works as a search engine and provides on-the-fly formatting. Chordie does not index songs against artists'/composers' will. To remove this song please click here.

Text color:
Chord color:
Chord grids: 
Font size:    
Page size: 

A D G
Rate #1 of 6 versions

Jango Player

Login - add to songbook

SHARE PAGE  



You need to log in to post comments