Guitar Tabs, Chords and Lyrics
Server problems seems to be fixed. Chordie has been experiencing problems with songs disappearing. These issues now seems to be fixed, but still verifying the fix. If you find anything strange, please email admin@chordie.com.


Tell It to the Devil  The Marshall Tucker Band

The Marshall Tucker Band
>From the Album-"Carolina Dreams"
[1977]Written by Toy Caldwell
Tabbed by Ray Scheidler
Chords:
[G] [F] [C] [Em] [D] 
 
 E-----3-------1-----------------------2--------
 B-------------1-------1---------------3--------
 G-------------2-----------------------2--------
 D-------------3-------2-------2----------------
 A-------------3-------3-------2----------------
 E-----3-------1--------------------------------

Intro:
[G] [G] [G] [G] [G] 
 
 E------3-------3-------3-------3-------3-------
 B----------------------------------------------
 G----------------------------------------------
 D--5-------0-------5-------0-------5-------0---
 A----------------------------------------------
 E------3-------3-------3-------3-------3-------

I c[G]an't stand to see a grown man
Hit a l[F]ittle kid
Or get c[C]ussed out for somethin'
Not even knowin' wh[G]at he did
See a man any man
Messin' 'round with your b[F]est friend's wife
Or sit h[C]elpless in the corner
And watch a man dr[G]ink away his life
I'm gonna cl[C]ean up my soul lord
You don't [G]owe me no back [Em]pay
I'm gonna t[G]ell that to the devil
When I s[D]ee him tod[G]ay
W[G]alked to a graveyard
May they [F]all rest in peace
I wish they could [C]all go to heaven
I bet two d[G]id at least
Someone that don't feel sorry
For the h[F]elpless and the blind
Kinda makes you wanna p[C]ick up the bible
And memorize [G]every single line
I'm gonna cl[C]ean up my soul lord
You don't [G]owe me no back [Em]pay
I'm gonna t[G]ell that to the devil
When I s[D]ee him tod[G]ay
See a man walk by a beggar
With an [F]empty tin cup
Kinda makes you wanna gr[C]ab him
By the back of the neck
Knock him down and n[G]ever pick him up
I'm gonna cl[C]ean up my soul lord
You don't [G]owe me no back [Em]pay
I'm gonna t[G]ell that to the devil
When I s[D]ee him tod[G]ay
I'm gonna tell that to the devil
When I s[D]ee him tod[C]ay[(G)]

Important: The song above is NOT stored on the Chordie server. The original song is hosted at www.allcountrytabs.com. Chordie works as a search engine and provides on-the-fly formatting. Chordie does not index songs against artists'/composers' will. To remove this song please click here.

Text color:
Chord color:
Chord grids: 
Font size:    
Page size: 

C D Em F G
Rate #2 of 4 versions

Login - add to songbook

SHARE PAGE  



You need to log in to post comments