Guitar Tabs, Chords and Lyrics
Server problems seems to be fixed. Chordie has been experiencing problems with songs disappearing. These issues now seems to be fixed, but still verifying the fix. If you find anything strange, please email admin@chordie.com.


House of a Thousand Dreams  Martina McBride

Martina Mcbride - House of a Thousand Dreams
capo III
Intro
[G] [C] [G] [C]  
 
 e---3---3--------3----3---3--------3------
 B---0h3---3--1h3---3--0h3---3--1h3---3----
 G---0--------0--------0--------0----------
 D---0--------2--------0--------2----------
 A---2--------3--------2--------3----------
 E---3-----------------3-------------------

He says,[G] "I'm just a [C]man, [G]I work with my [C]hands
[G]But lately no [C]work has been arou[G]nd[C]
I [D]wish that I could [C]put more on the[G] table
Pr[C]ovide the [G]life I'm sure my [C]family dreams a[D]bout"
"But there's[C] cracks in all the [D]walls and all the[G] windows
And the[C] flies, they find their[D] way in through the[G] screen
[C]I just pray that[D] hope will go on l[G]iving
C D G (Intro)
In this house of a thousand dreams"
She says,[G] "my husband's a [C]good man
[G]Gives all that [C]he can
[G]I know he t[C]hinks he's let me dow[G]n[C]
I just[D] want him and the [C]children to be h[G]appy
[C]It's not always [G]easy, but it's [C]all I dream a[D]bout"
"So I'll [C]find some yard-sale[D] curtains for the wi[G]ndows
And I'll [C]sew some yellow t[D]rim along the [G]seams
And [C]I'll keep praying[D] hope will go on l[G]iving
[C]In this house[D] of a thousand dreams"[G]
 
 e---2-2-0-2-2-2-3--2-2-3-2-0--2-2-3-2-2-2-0----7-7-7--
 B---3-------3------2-2-3-3-3--3-------3-----3/8-8-8---
 G---2-------2------2-2-2-2-2--2-------2---------------
 D-----------------------------------------------------
 A-----------------------------------------------------
 E-----------------------------------------------------

(Intro)
The boy says,[G] "my daddy's a [C]strong man
[G]My momma, she [C]loves him
[G]And they love my [C]brother and sister and [G]me
Some[D]times at night we [C]lay out in the ba[G]ckyard
[C]And take turns [G]wishing on [C]the first star we s[D]ee"
"And the [C]crickets always [D]sing outside the w[G]indows
And I [C]love to feel the[D] wind blow through the[G] screen
And [C]I sure hope that [D]we can live [G]forever
[C]In this house[D] of a thousand drea[G]ms"
"Yeah [C]I sure hope that [D]we can live for[G]ever
[C]In this house [D]of a thousand dream[G]s"

Important: The song above is NOT stored on the Chordie server. The original song is hosted at www.allcountrytabs.com. Chordie works as a search engine and provides on-the-fly formatting. Chordie does not index songs against artists'/composers' will. To remove this song please click here.

Text color:
Chord color:
Chord grids: 
Font size:    
Page size: 

C D G
Rate #1 of 2 versions

Login - add to songbook

SHARE PAGE  



You need to log in to post comments