Guitar Tabs, Chords and Lyrics
Server problems seems to be fixed. Chordie has been experiencing problems with songs disappearing. These issues now seems to be fixed, but still verifying the fix. If you find anything strange, please email admin@chordie.com.


Maybe We Should Just Sleep on It  Tim McGraw

Key of G
Intro solo:
[G] [C] [G] 
 
 ---------------------------------------------------
 -3-------3---------------3-------3-----------------
 -----------------2-4-2-------------------2-4-2-----
 ---5-4-5---5-4-5-------5---5-4-5---5-4-5-------5---
 -------------------------------------------------5-
 ---------------------------------------------------

[G]I got an empty feeling when that m[C]oving van pulled up
[G]It got a whole lot emptier as I w[D]atched them fill that truck
[G]And when they carried out your clothes it t[C]ook my breath away
[D]Now they're headed for that bed, [C]the[D] thought keeps running through my
head
Chorus:
[G]Baby, maybe we could just s[C]leep on it tonight
And [D]give our hearts just one more c[G]hance to change our minds
I could be wrong but good[C]bye just don't feel right
So [D]baby, m[C]aybe we should just sle[G]ep on it tonight
Instrumental: play beginning solo
[G]I'll pay them boys to stop right now and leave that t[C]ruck out on the
curb
[G]The TV and the phone's packed up, so w[D]e won't be disturbed
[G]There's not a light left in this room, just a s[C]hadow of a doubt
[D]So let's make sure we don't give up [C] [D]before we've thought this through
enough
Chorus D C
Chorus-at end "baby, maybe" say 3 times instead of once, then finish
with solo
Solo/Instrumental:
[G] [C]  
 
 ----------------------------------------
 -3-------3---------------3-------3------
 -----------------2-4-2------------------
 ---5-4-5---5-4-5-------5---5-4-5---5-4-5
 ----------------------------------------
 ---------------------------------------- 


Important: The song above is NOT stored on the Chordie server. The original song is hosted at www.allcountrytabs.com. Chordie works as a search engine and provides on-the-fly formatting. Chordie does not index songs against artists'/composers' will. To remove this song please click here.

Text color:
Chord color:
Chord grids: 
Font size:    
Page size: 

C D G
Rate #1 of 2 versions

Login - add to songbook

SHARE PAGE  



You need to log in to post comments