Guitar Tabs, Chords and Lyrics
Server problems seems to be fixed. Chordie has been experiencing problems with songs disappearing. These issues now seems to be fixed, but still verifying the fix. If you find anything strange, please email admin@chordie.com.


Silence  Kurt Nilsen

capo 3
G*=
 
 e --- --- -x- --- ---
 B --- --- -x- --- ---
 G --- --- --- --- ---
 D --- --- --- --- ---
 A --- -x- --- --- ---
 E --- -x- --- --- --- 

Intro:
 
 e ---------2------2------2------0-------------0--------0------0------0------0-------------0--
 B ---------0------0------0------0-------------0--------3------3------3------1-------------1--
 G ---------0------0------0------0-------------0--------0------0-------0-----0-------------0--
 D ---------2------2------2------2------2-----2--------2-------2------2------2-----2------2---
 A ---------2------2------2------2------2-----2--------3-------3------3------3-----3------3---
 E ---------0------0------0------0------0-----0--------0-------0------0------0-----0------0---
 e ---------2------2------2------0-------------0--------0------0------0------0-------------0--
 B ---------0------0------0------0-------------0--------3------3------3------1-------------1--
 G ---------0------0------0------0-------------0--------0------0-------0-----0-------------0--
 D ---------2------2------2------2------2-----2--------2-------2------2------2-----2------2---
 A ---------2------2------2------2------2-----2--------3-------3------3------3-----3------3---
 E ---------0------0------0------0------0-----0--------0-------0------0------0-----0------0---
 e ---------2------2------2------0-------------0--------0------0------0------0-------------0--
 B ---------0------0------0------0-------------0--------3------3------3------1-------------1--
 G ---------0------0------0------0-------------0--------0------0-------0-----0-------------0--
 D ---------2------2------2------2------2-----2--------2-------2------2------2-----2------2---
 A ---------2------2------2------2------2-----2--------3-------3------3------3-----3------3---
 E ---------0------0------0------0------0-----0--------0-------0------0------0-----0------0--- 

Verse:
[Em]Light up a cigarette to [D]kill[-] tim[Dsus4]e[-] [D]
Cadd9 G G*
Pacing this floor another dozen times
[Em7]If there was someway to ex[D]press it otherwise
[Cadd9]I would
[Em]Fed up of fighting over cr[D]umbs[-] and[Dsus4] dust[-] [D]
Cadd9 G G*
Donít have to be this way, a hollow trust
[Em7]If we could find some way to[D] make it right
Cadd9 G - G*
We would, we would
Chorus:
(Mute)
And then
[Cadd9]The silence came[D]
Em7 G-G*
There was not a word to say
One ho[Cadd9]ur felt like a da[D]y
Em7 G-G*
When the silence came
We felt it[Cadd9] on our bodies[D]
Em7 G-G*
No way to turn it around
One hour [Cadd9]felt like a day[D]
When the[Em7] silence came
G - G*
When the silence came
Canít hear nothing but the dripping from the tap
Blowing kisses no one will grab
Need to organise this life that we have
If we could
God knows what we have sacrificed
Guess we deserve the days of our lives
Wish we could learn how to let things slide away
Just for a day
And then
The silence came
There was not a word to say
One hour felt like a day
When the silence came
We felt it on our bodies
No way to turn it around
One hour felt like a day
When the silence came
When the silence came
When the silence came
God knows what we have sacrificed
Guess we deserve the days of our lives
Wish we could learn how to let things slide
For a day
And then
The silence came
There was not a word to say
One hour felt like a day
When the silence came
We felt it on our bodies
No way to turn it around
One hour felt like a day
When the silence came
When the silence came
When the silence came
Then the silence came
Yes it came.

Important: The song above is NOT stored on the Chordie server. The original song is hosted at www.allcountrytabs.com. Chordie works as a search engine and provides on-the-fly formatting. Chordie does not index songs against artists'/composers' will. To remove this song please click here.

Text color:
Chord color:
Chord grids: 
Font size:    
Page size: 

Cadd9 D Dsus4 Em Em7
Rate #2 of 3 versions

Jango Player

Login - add to songbook

SHARE PAGE  



You need to log in to post comments