Guitar Tabs, Chords and Lyrics
Major upgrade!! After one year development the new version of Chordie is now online! Please give feedback.


Riding Alone  Nitty Gritty Dirt Band

Will The Circle Be Unbroken Volume 2 Album
(Emmylou Harris, Bob Carpenter, Chet Atkins)
 
 e----0-------0--0------0------------------
 B----1𥹑---3----3----1----------1-------
 G----0-------0---------2------0h2-----0---
 D----2-------0---------3----3---------22-
 A----3-------2---------0--------------2---
 E----0-------0------------------------0---

[(C)] [(G/B)] [(F)] [(Em)] 
 
 e-------------------------------3---------
 B--11h3-----11h3----11h3--3--0-----0---
 G--2---------1--------0---------0--2--0---
 D--2---------0--------2---------0--3------
 A--0---------0--------3---------2---------
 E---------------------0---------3---------

[(Am)] [(E7add5)] [(C)] [(G)]  
Well, she [C]saved him from [G/B]whiskey,
was his [F]constant comp[Em]anion.
You'd s[Am]ee them out [E7add5]riding at [C]dawn.[G]
She[C] gave him his [Em]reasons
to sh[F]oulder the seaso[Em]ns,
but[Bb] now when you[Am] see him
he's [D]riding a[G]lone.
She[C] lay down be[G/B]side him
to t[F]ouch him and [Em]guide him,
t[Am]urn 'round his [E7add5]head
on the d[C]arkest of [G]days.
He st[C]ill sits bes[Em]ide her,
rem[F]embers her smilin[Em]g
an[Bb]d whisper to [Am]him
that old [D]song he would[G] play.
Please[C] lay down bes[G/B]ide me,
How [F]I love [Em]you.
Nev[F]er wanted to [Am]bid this adieu.
No r[Am]ed river [E7add5]ever ran deeper
tha[D]n an old cowboy [C]love,
tha[D]n an old cowboy[G] love that runs [C]true.

Important: The song above is NOT stored on the Chordie server. The original song is hosted at www.allcountrytabs.com. Chordie works as a search engine and provides on-the-fly formatting. Chordie does not index songs against artists'/composers' will. To remove this song please click here.

Text color:
Chord color:
Chord grids: 
Font size:    
Page size: 

Am Bb C D Em F G G/B
Rate #1 of 2 versions

Jango Player

Login - add to songbook

SHARE PAGE  




You need to log in to post comments