Guitar Tabs, Chords and Lyrics
Major upgrade!! After one year development the new version of Chordie is now online! Please give feedback.


Edge of Love  Mindy Smith

Capo on 3rd Fret
[D] [G] [B/D] [C] [Asus] [A]  
 
 e-0---3-----2----0-----0--------0
 b-3---3-----3----1-----3--------2
 g-0---0-----2----0-----2--------2
 d-4---0-----0----2-----2--------2
 a-5---2-----2----3-----0--------0
 E-x---3-----x----x-----x--------x

There are two guitars playing so its kind of
a mixture of both.
Beginning
 
 e-----------------------------0--
 b---------3-----3h5--------3---3-
 g----0-0---0-0--------0-0---0---0
 d---4---4---4-4------4---4---4---
 a--5-----5----------5-----5------
 E--------------------------------

The edge of love like a knife
 
 e-----------------------------0--
 b---------3----------------3---3-
 g----0-0---0-0--------0-0---0---0
 d---4---4---4-4------4---4---4---
 a--5-----5----------5-----5------
 E--------------------------------

D Chord
shimmer shines when it hits the light
 
 e-----------------------------0---------------
 b---------3----------------3---3-----3------2-
 g----0-0---0-0--------0-0---0---0---2-2-2--2--
 d---4---4---4-4------4---4---4-----2---2--2---
 a--5-----5----------5-----5-------0------0----
 E---------------------------------------------

D chord Asus A
Just like that it will change your life
 
 e-------------------------------------
 b---------3----------3-------3--3--3--
 g----0-0---0-0------2-2-0---0-0--0--0-
 d---4---4---4-4----0---0---0---0--0--0
 a--5-----5----------------------------
 E-----------------2-------3-----------

[D] [D/F#] [G]  
and it makes time stand it makes time stand still.
 
 e----------------------------------------------
 b------3---------1-----------3-----------2-2---
 g----2--2--2----0-0-0------2--2--2------2---2--
 d--0-----0-----2---2-----0-----0-------0-----0
 a-2-----------3--------2-------------4---------
 E---------------------- ----------------------- 

[B/D] [C] [B/D]  
Then Back to the same pattern for second verse
Bridge
Th[G]e World is fine ohhh?
M[G]aybe I'm your leap [D]of faith
 
 e---------------
 b---------3-----
 g----0-0---0-0--
 d---4---4---4-4-
 a--5-----5-----5
 E---------------

I [G]know it's right cause' your my [D]amazing grace
 
 e---------------
 b---------3-----
 g----0-0---0-0--
 d---4---4---4-4-
 a--5-----5-----5
 E---------------

[Asus]You make time stand s[C]till.
Instrumental
 
 G D Asus B/D C then e---------------
 b---------3-----
 g----0-0---0-0--
 d---4---4---4-4-
 a--5-----5-----5
 E---------------
 Then back to bridge followed by e---------------
 b---------3-----
 g----0-0---0-0--
 d---4---4---4-4-
 a--5-----5-----5
 E--------------- 

The edge of love the only way
 
 e-----------------------------0--
 b---------3----------------3---3-
 g----0-0---0-0--------0-0---0---0
 d---4---4---4-4------4---4---4---
 a--5-----5----------5-----5------
 E--------------------------------

[D]  
just give it all for heaven's sake
 
 e-----------------------------0---------------
 b---------3----------------3---3-----3------2-
 g----0-0---0-0--------0-0---0---0---2-2-2--2--
 d---4---4---4-4------4---4---4-----2---2--2---
 a--5-----5----------5-----5-------0------0----
 E---------------------------------------------

D chord Asus A
and when we fall God will keep us safe
 
 e-------------------------------------
 b---------3----------3-------3--3--3--
 g----0-0---0-0------2-2-0---0-0--0--0-
 d---4---4---4-4----0---0---0---0--0--0
 a--5-----5----------------------------
 E-----------------2-------3-----------

[D] [D/F#] [G]  
and that when time stands thats when time stands still.
 
 e--------------------------------------------------
 b------3---------1-----------3-----------2-2------2
 g----2--2--2----0-0-0------2--2--2------2---2-----0
 d--0-----0-----2---2-----0-----0-------0-----0----4
 a-2-----------3--------2-------------4------------5
 E---------------------- ---------------------------

[B/D] [C] [B/D]  
Hope this tab helps somewhat. Let me know if you need any help.

Important: The song above is NOT stored on the Chordie server. The original song is hosted at www.allcountrytabs.com. Chordie works as a search engine and provides on-the-fly formatting. Chordie does not index songs against artists'/composers' will. To remove this song please click here.

Text color:
Chord color:
Chord grids: 
Font size:    
Page size: 

A Asus B/D C D D/F# G
Rate #1 of 3 versions

Jango Player

Login - add to songbook

SHARE PAGE  



You need to log in to post comments