Guitar Tabs, Chords and Lyrics
Major upgrade!! After one year development the new version of Chordie is now online! Please give feedback.


Any Man of Mine   Shania Twain

 
 ------------------------------------------------------------------------------

 


 [--]  

 
 4-2-1-2^1-1-1--------------4-2-1-2^1---------------------------1-----------
 -------------------1-3-1-3---------------1-1----1-3-1-3--3-1--3--3-1-1----
 -----------------1------------------------------1-----------------------------

 


 [--]  


 

 
 ------------------------------------------------------------------------------

 


 [---]  


 

 
 ------------------------------------------------------------------------------

 


 [---]  


 

 
 ---------------------------------------
 4-2-1-2^1-----------------1---------
 ------------1-1----1-3-1-3--3-1-1---
 -----------------1---------------------
 -------------------------------------------------
 -------------------------------------------------

 


 


 Verse:


 

 
 ------------------------------------------------------------------------------
 --------
 ------------------------------------------------------------------------------
 --------
 ------------------------------------------------------------------------------
 --------
 ----------------------8--8--------------------------------------8--8----------
 ------
 -6--6-----6--6-----6--6------6--6------6--6------6--6-----6--6-----6--6------
 -4--4-----4--4---------------4--4-------4--4------4--4---------------4--4-----

 


 [-]  


 


 Bridge:


 

 
 ------------------------------------------------------------------------------
 ---------------
 ------------------------------------------------------------------------------
 ---------------
 ------------------------------------------------------------------------------
 ---------------
 5>>6---6-6---5>>6---------------------------5>>6----6-4---5>>6----------------
 --------
 3>>4---4-4---3>>4---5>>6---6-6--5>>6----3>>4----6-4---3>>4------4-3-------8-X1

 


 [6-]  

 
 ------------------------3>>4---4-4--3>>4------------------------------------6-

 


 4--6-X16-


 


 NOTE: The 5>>6 and 3>>4 let you know you should just slide your fingers


 down, still pressing down on the strings. The last power chord should be


 played 16 (sixteen) times, hence the X16.


 


 Chorus (Note: chords played 1/4, two 1/8th, 1/4, two 1/8th beats per measure):


 

 
 ------------------------------------------------------------------------------
 --------------
 ------------------------------------------------------------------------------
 --------------
 ------------------------------------------------------------------------------
 --------------
 6----6---------------8----8----------------6----6------------------------6----
 8----8---
 4----4----6----6----6----6-----6----6----4----4----6-----6-----4-----4----6---

 


 [-6---]  


 

 
 -----------4----4----------------4----4----------------4-----4-----2----------
 ----------


Important: The song above is NOT stored on the Chordie server. The original song is hosted at www.allcountrytabs.com. Chordie works as a search engine and provides on-the-fly formatting. Chordie does not index songs against artists'/composers' will. To remove this song please click here.

This song is displayed as text-only. Transposing and tuning is only available for chordpro-songs.
Rate #1 of 1 versions

Login - add to songbook

SHARE PAGE  




You need to log in to post comments