Guitar Tabs, Chords and Lyrics
Server problems seems to be fixed. Chordie has been experiencing problems with songs disappearing. These issues now seems to be fixed, but still verifying the fix. If you find anything strange, please email admin@chordie.com.


Claudette   Dwight Yoakam




SONG: CLAUDETTE
ARTIST: DWIGHT YOAKUM
ALBUM: UNDER THE COVERS
WRITER: ROY ORBISON(?)

THERE ARE ONLY A FEW PARTS TO THIS SONG, SO I WILL TAB OUT THE RHYTHM, 
THEN THE SOLO.FOR BEST RESULTS USE A TELE OR A STRAT WITH SEYMOUR DUNCAN 
ANTIQUITY PICKUPS...

OPEN
E    A
0----0---                                       ---------
0----1---  OPENING...ACUSTIC    E-E-A-E-A-E 2X  ---------
1----2---                                       ---------   
2----2---                                       ---------
2----0---                                       ---------
0--------                                       0/-LONG SLIDE
E RIFF                    A RIFF
------------------------------------------------------------------------------------------------THE BACKING RIFF---------------------------------------------------------------------------------------------------------------------------
-------------------------------------------
----------------------------------5-2-4-2----------------------------------------------------THE FIRST PART ------THE SECOND PART---------------------------------------------------------
--------5-2-4-2-----------0-0-3-4----------this guitar riff is in correct-D4TH------------------------------------------------------------------------------2 4 2 3 2------------------
0-0-3-4---------------------------------------------------------------------------A5TH-------------------2 4 2 3 2----------------------------------------0 0 4--------------------------
-------------------------------------------------------------------------------------E6TH----------0 0 4---------------------------------------------------------
OTHER CHORDS USED DURING SONG:
B(b shuffle during chorus)     A(also a shuffle)
----------------------------------------
----------------------------------------
-------------------------------2--------
4------------------------------2--------
2------------------------------0--------
----------------------------------------
E RIFF--->
IVE GOT A BRAND NEW BABY AND I FEEL SO GOOD

SHE LOVES ME EVEN BETTER THAN I THOUGHT SHE COULD
A RIFF--->
IM ON MY WAY TO HER HOUSE 

AND IM PLUM OUT OF BREATH
B CHORD(STRUM TO RHYTM)
WHEN I SEE HER TONITE 

IM GONNA SQUEEKE HER TO DEATH
       E RIFF  
chorus:CLAUDETTE, PRETTY LITTLE THING CLAUDETTE
A RIFF
NEVER MAKES ME FRET CLAUDETTE
B SHUFFLE
WELL SHES THE GREATES GIRL 
A SHUFFLE
THAT I EVER MET
B SHUFFLE
I GET THE BEST LOVIN 
A SHUFFLE
THAT ILL EVER GET FROM 
E RIFF
CLAUDETTE, PRETTY LITTLE PET 

CLAUDETTE
A RIFF
OH OH CLAUDETTE
-here is what is played at the end of the chorus
--------------------------------------
1--1--1-1--1-1--1-1--1----------------
2--2--0h2--0h2--2-2--0h2--------------
2--2--0h2--0h2--2-2--0h2--------------
0--0------------0-0-------------------
--------------------------------------
back to verse chorus pattern...

here is the solo...
--3--3/--0--3/-------------
2----2/--0--2/--2///p0---
---------------------------  this is repeated one more
---------------------------   time...
---------------------------
---------------------------
reverse rake
------------------------------------------------
-----x------------------------------------------
------x---------------------------2------2------
-------x----------------------------------------
--------x------0-0----0-0-----0-0---0--0---0----
---------x--4/-----4/------4/-------------------
here is the insane revese climb...play fast or it wont sound right...
although several pulls have been notated...most of this is done with 
hammers and pulls....
----------------------------------------------------------
----------------------------------------------------------
-------0---2p0---0----------------------------------------
0-2-4----4-----4---4-2-0---0---2p0---0--------------------
-------------------------4---4-----4---4-2---0---2p0----0-
-------------------------------------------4---4-----3/---
the solo ends with these harmonics and slight movement with 
vibrato....those with telecasters may vibrate behind the nut...
-----5~~~~~-------------
------------------------
--5---------------------
------------------------
------------------------
-----------------------
back to verse and chorus.....



Important: The song above is NOT stored on the Chordie server. The original song is hosted at www.allcountrytabs.com. Chordie works as a search engine and provides on-the-fly formatting. Chordie does not index songs against artists'/composers' will. To remove this song please click here.

This song is displayed as text-only. Transposing and tuning is only available for chordpro-songs.
Rate #1 of 3 versions

Jango Player

Login - add to songbook

SHARE PAGE  




You need to log in to post comments