Guitar Tabs, Chords and Lyrics
Server problems seems to be fixed. Chordie has been experiencing problems with songs disappearing. These issues now seems to be fixed, but still verifying the fix. If you find anything strange, please email admin@chordie.com.


Dreams of Clay  Dwight Yoakam

Dwight Yoakam - Dreams Of Clay (tab)
F# = 244322 B = x24442
F = 133211 E = 022100
A = x02220
*****************************************************************************************
[F#] [B] I'd been building hopes so [F#]long,
Honey, [F]I [E]must have lost [F#]sight of what went [B]wrong.
'Cause in sorrow's blinding light to[F#]day,
Baby, [F]it [E]looks like my [F#]dreams were made of [B]clay.
Years of yearning spent for [F#]you,
Honey, [F]I [E]know now were the [F#]cravings of a [B]fool.
I guess your wants just slipped a[F#]way,
And baby, [F]it [E]looks like my [F#]dreams were made of [B]clay.[A]
[E] I knew love could toss you down,[A]
[E] And leave you there to crawl around.[A]
[E] But never thought that was a [A]fall we'd [B]make.[A]
[E] Getting up was nothing new,[A]
[E] The kind of thing heart's learn to do.[A]
[E] But knowing how doesn't mean its easy to [F#]take.
So I'll forget about[B] plans we had for me and [F#]you,
[F]And [E]dwell on thoughts [F#]lonely lives per[B]sue.
Praying memories don't [F#]stay,
'Cause baby, [F]it [E]looks like our [F#]dreams were made of [B]clay.
[B]INST[F#]RUME[F]NT[E]AL[F#] [B] [F#] [F] [E] [F#] [B] [A]
[E] I knew love could toss you down,[A]
[E] And leave you there to crawl around.[A]
[E] But never thought that was a [A]fall we'd [B]make.[A]
[E] Getting up was nothing new,[A]
[E] The kind of thing heart's learn to do.[A]
[E] But knowing how doesn't mean its easy to [F#]take.
So I'll forget about[B] plans we had for me and [F#]you,
[F]And [E]dwell on thoughts [F#]lonely lives per[B]sue.
Praying memories don't [F#]stay,
'Cause baby, [F]it [E]looks like our [F#]dreams were made of [B]clay.
Yeah baby, it [E]looks like our [F#]dreams were made of [B]clay.[A] [E] [A] [B]
*****************************************************************************************
/ = slide up \ = slide down
h = hammer-on
*****************************************************************************************
GUITAR SOLO (halfway through instrumental)
[B] [F#] [F] 
 
 E--11-12-12/14-14-14/16-16-16-16\11-11-11-11---18-21--------------11-12-12/14-
 B--------------------------------------------19-----19-19-19-19\--------------
 G-----------------------------------------------------------------------------
 D-----------------------------------------------------------------------------
 A-----------------------------------------------------------------------------
 E-----------------------------------------------------------------------------

[E] [F#] [B] [A] [E] 
 
 E--14/16-16-16-16/18-18-18-18h19-19-19-19/21-21-21-21\19-19-19-19-19-----------------
 B---------------------------------------------------------------------19-16----------
 G--------------------------------------------------------------------------16-18-----
 D-------------------------------------------------------------------------------18---
 A------------------------------------------------------------------------------------
 E------------------------------------------------------------------------------------ 


Important: The song above is NOT stored on the Chordie server. The original song is hosted at www.allcountrytabs.com. Chordie works as a search engine and provides on-the-fly formatting. Chordie does not index songs against artists'/composers' will. To remove this song please click here.

Text color:
Chord color:
Chord grids: 
Font size:    
Page size: 

A B E F F#
Rate #2 of 2 versions

Login - add to songbook

SHARE PAGE  




You need to log in to post comments