Guitar Tabs, Chords and Lyrics
Server problems seems to be fixed. Chordie has been experiencing problems with songs disappearing. These issues now seems to be fixed, but still verifying the fix. If you find anything strange, please email admin@chordie.com.


Here Comes the Night  Dwight Yoakam

Dwight Yoakam - Here Comes The Night (tab)
Play with capo on 1st fret.
All chord names are shapes are relative to position of capo.
Real chord names in square brackets below.
D (Eb) = xx0232 G (Ab) = 320003
A (Bb) = x02220 Gsus (Absus) = 320013
***************************************************************************************
[D]INT[G]RO[D] [G] [D] [G] [D] [A]
[D]I can see her right out my window,
[A]Walkin' down the street, my girl with a[D]nother guy.[G] [A]
His [D]arms around her like it used to be with [A]me,
Hey man, it makes me[D] want to die.
[G]Yeah, yeah, [A]yeah,
Here [D]comes,
[G] Here comes the [D]night.
[G] Here comes the [D]night,
[G] Whoa, whoa, whoa, [D]yeah.[A]
[D]There they go it's funny how they look so [A]good together,
Wonder what is[D] wrong with me.[G] [A]
[D]Why can't I accept the fact she's [A]chosen him,
And simply[D] let them be.
[G]Whoa, whoa, [A]whoa,
Here [D]comes,
[G] Here comes the [D]night.
[G] Here comes the [D]night,
[G] Whoa, whoa, whoa, [D]yeah.[A]
[D]INST[Gsus]RUMENT[G]AL[D] [A] [D] [A] [D] [A]
Oh, [D]she's with him, he's turning out the lights,
And [A]now he's holding her the way I[D] used to do.[G] [A]
[D]I can see her closing her eyes and [A]telling the lies,
Exactly like she[D] told me too.
[G]Whoa, whoa, [A]whoa,
Here [D]comes,
[G] Here comes the [D]night.
[G] Here comes the [D]night,
[G] Whoa, whoa, whoa, [D]yeah.
[G] Here [D]comes,
[G] Here comes the [D]night.
[G] Here [D]comes,
[G] Here comes the [D]night.
[G] Here [D]comes,
[G] Here comes the [D]night.
[G] Here [D]comes,
[G] Oh, here comes the [D]night[G].[D]
***************************************************************************************
/ = slide up \ = slide down
***************************************************************************************
INTRO (using capo on 1st fret)
The start of this is also used throughout the chorus.
[D] [G] [D] [G] [D] [G] [D] [A] 
 
 E--2----------2----------2----------2---------------
 B--3---3-0----3---3-0----3---3-0----3---3-2-2-3-5---
 G--2--2-2-0---2--2-2-0---2--2-2-0---2--2-2----------
 D--0----------0----------0----------0---------------
 A---------------------------------------------------
 E--------------------------------------------------- 

LEAD SOLO (using capo on 1st fret)
[D] [Gsus] [G] [D] [A] [D] [A] [D] [A] 
 
 E--2-2-3-5/8-8--7-7-5\2-2-5-3-2--3-2-0-2-5-----0-3-2-0--------------------------
 B-----------------------------------3-----2-2---------2-3--3-2-0-3-2-0-3-2-0----
 G---------------------------------------------------------------------------2---
 D-------------------------------------------------------------------------------
 A-------------------------------------------------------------------------------
 E------------------------------------------------------------------------------- 

FILLS (using capo on 1st fret)
FILL IN VERSE (2nd & 4th lines)
[G] [A]  
 
 E-------------
 B---3-3-3-3---
 G--7-6-4-6----
 D-------------
 A-------------
 E------------- 

FILL IN CHORUS (on every D chord)
[D] [G]  
 
 E--2-----------
 B--3----3-0----
 G--2---2-2-0---
 D--0-----------
 A--------------
 E-------------- 


Important: The song above is NOT stored on the Chordie server. The original song is hosted at www.allcountrytabs.com. Chordie works as a search engine and provides on-the-fly formatting. Chordie does not index songs against artists'/composers' will. To remove this song please click here.

Text color:
Chord color:
Chord grids: 
Font size:    
Page size: 

A D G Gsus
Rate #1 of 2 versions

Login - add to songbook

SHARE PAGE  



You need to log in to post comments