Guitar Tabs, Chords and Lyrics
Server problems seems to be fixed. Chordie has been experiencing problems with songs disappearing. These issues now seems to be fixed, but still verifying the fix. If you find anything strange, please email admin@chordie.com.


I Hear You Knockin'  Dwight Yoakam

Dwight Yoakam - I Hear You Knockin' (tab)
E = 022100 E7 = 022130
B7 = x21202
***********************************************************************************
[E]INTRO
I hear you knockin',
I hear you callin',
I hear you everytime you say my [E7]name.
But its [A]no use baby,
Your [B7]callin' is all in [E]vain.
No use in cryin',
You done the lyin',
You tried to cheat baby, you're to [E7]blame.
Well its [A]no use baby,
Your [B7]cryin' is all in [E]vain.
I packed my [A]suitcase,
I bought my ticket,
It won't be [E]long and I'll be on my way.
'Cause I'm a [A]leavin',
Yeah I'm a leavin',
And I'm[B7] goin' away to stay.
I hear you [E]knockin',
I hear you callin',
I hear you everytime you say my [E7]name.
But its [A]too late baby,
Your [B7]callin' is all in [E]vain.
[E]FIRST[E7] LEAD[A] SOL[B7]O[E] [A] [B7] [E] [E7]
I packed my [A]suitcase,
I bought my ticket,
It won't be [E]long and I'll be on my way.
'Cause I'm a [A]leavin',
Yeah I'm a leavin',
And I'm[B7] goin' away to stay.
I hear you [E]knockin',
I hear you callin',
I hear you everytime you say my [E7]name.
But its [A]no use baby,
Your [B7]callin' is all in [E]vain.
[E]SECO[E7]ND LE[A]AD S[B7]OLO[E]
(FILL 1)
I hear you knockin',
(FILL 2)
I hear you callin',
E7 (FILL 3)
I hear you everytime you say my name.
But its [A]too late baby,
B7 E (FILL 4)
Your callin' is all in vain.
(FILL 5)
I hear you knockin',
(FILL 5)
I hear you callin',
E7 (FILL 6)
I hear you everytime you say my name.
But its [A]too late baby,
B7 E (FILL 7)
Your callin' is all in vain.
(FILL 8)
I hear you knockin',
(FILL 8)
I hear you callin',
I hear you everytime you say my [E7]name.
But its [A]too late baby,
B7 E (FILL 9)
Your callin' is all in vain.
I hear you knock, knock, knock,
Call...I hear you everytime you say my name...(fades out)
***********************************************************************************
b = bend h = hammer-on
/ = slide up tr = trill
p = pulloff \ = slide down
x = dead note ~ = vibrato
tp = tremelo pick
***********************************************************************************
FIRST LEAD SOLO
[E] [E7] [A] [E] 
 
 E------------------------------------------0-2/4-2-0------0------------0---
 B-------------------------------------0-0h2---------2-0tr2--3p2p0-0----3/5-
 G----------------------------------------------------------------2-0-1-----
 D--2--------2--------2-----------2-0----------------------------------2----
 A---4-2------4-2------4-2--2--2--------------------------------------------
 E------3b-0-----3b-0-----3b-3b-3b------------------------------------------
 E-------------------0---0--0--3b-0--12\---0-0--3b-0--12\---0---3b-3b-0-
 B--3p2p0----------3/5--5----0-2b-0--12\--0---0-2b-0--12\--0-0--2b-2b-0-
 G-------3p2p0-0h1----6-7-------------------------------------0---------
 D----------------2-----------------------------------------------------
 A----------------------------------------------------------------------
 E----------------------------------------------------------------------

[E7] [A] [B7] [E] [E7] 
 
 E------4-3---------0-3-2-0-3-2-0---7-5-4-3-0-----0-0---4--3--3--4---
 B----------3/5-3--2-------2----------------------3-3b--3b-2--3b-3---
 G--2/4-4-3----------------------6/8-x-4--3-0h1----------------------
 D----------4/6-4------------------------------2-2-------------------
 A-------------------------------------------------------------------
 E------------------------------------------------------------------- 

SECOND LEAD SOLO
[E]  
 
 E--3/4-3/4-3/4-3/4-3/4-0-0--3/4-3/4-3/4-3/4-3/4-0-0--3/4-0-0--3/4-0-0--
 B----------------------------------------------------------------------
 G--3/4-3/4-3/4-3/4-3/4-0-1--3/4-3/4-3/4-3/4-3/4-0-1--3/4-0-1--3/4-0-1--
 D-------------------------2------------------------2--------2--------2-
 A----------------------------------------------------------------------
 E----------------------------------------------------------------------

[E7] [A] [B7] [E] 
 
 E--3/4-0-0--0-3-4------0-----------------4-3-2-0-0-0-0-3b-3b-0-3b-3b--
 B-----------0-2-3--0-----8-7-5---5-5---5---------------2b-2b-0-2b-2b--
 G--3/4-0-1----------4/6--6-6-6-6-----6---4-3-2-0-1-0-1----------------
 D---------2--------------5-5-5---5-5---5----------2-------------------
 A---------------------------------------------------------------------
 E---------------------------------------------------------------------
 E--3b-3b-0-3b-3b-3b-0---
 B--2b-2b-0-2b-2b-2b-0---
 G-----------------------
 D-----------------------
 A-----------------------
 E----------------------- 

FILL 1 FILL 2
 
 E--0-4\--- E--0-0-0-0-4\---
 B--0-3\--- B--0-0-0-0-3\---
 G--------- G----------4\---
 D--------- D---------------
 A--------- A---------------
 E--------- E--------------- 

FILL 3
 
 E--10-10-10-10-10------
 B---x--x--x--x--x-8\---
 G---x--x--x--x--x------
 D----------------------
 A----------------------
 E---------------------- 

FILL 4
 
 E---0---------------------------
 B--0-0-5--5p3p0-3b-0------------
 G-------------------0-4\2/14\---
 D-------------------------------
 A-------------------------------
 E------------------------------- 

FILL 5 FILL 6
 
 E--10\--- E---------------
 B---9\--- B--7/9-7/9\7\---
 G---9\--- G--7/9-7/9\7\---
 D---9\--- D--7/9-7/9\7\---
 A-------- A---------------
 E-------- E--------------- 

FILL 7
 
 E------------------------------------------ 

B--5~5~5~5~5~5~5~5~5~5~5~5~5~5~5~5~5~5~5---
 
 G------------------------------------------
 D------------------------------------------
 A------------------------------------------
 E------------------------------------------ 

FILL 8
 
 E--0-0-0-0-3b-3b---
 B------------------
 G------------------
 D------------------
 A------------------
 E------------------ 

FILL 9
 
 E--0tp-3tp-3/7tp-7/10tp-12-12-12-12-12-12-15\----15-15-15-15-15-12\---
 B--------------------------15-15-15-15-15-14\----14-14-14-14-14-12\---
 G---------------------------------------------------------------------
 D---------------------------------------------------------------------
 A---------------------------------------------------------------------
 E--------------------------------------------------------------------- 


Important: The song above is NOT stored on the Chordie server. The original song is hosted at www.allcountrytabs.com. Chordie works as a search engine and provides on-the-fly formatting. Chordie does not index songs against artists'/composers' will. To remove this song please click here.

Text color:
Chord color:
Chord grids: 
Font size:    
Page size: 

A B7 E E7
Rate #1 of 1 versions

Login - add to songbook

SHARE PAGE  




You need to log in to post comments