Guitar Tabs, Chords and Lyrics
Server problems seems to be fixed. Chordie has been experiencing problems with songs disappearing. These issues now seems to be fixed, but still verifying the fix. If you find anything strange, please email admin@chordie.com.


Love Caught Up to Me  Dwight Yoakam

The chords shown here are just to be played on a standard tuned guitar.
D = xx0232 G = 320003
A = x02220 F# = 244322
E = 022100 F = 133211
Bb = x13331
****************************************************************************************
[D]INTRO
Baby, I couldn't [G]hide no matter how hard I [D]descry.
Was foolish to have be[A]gun to believe I'd ever out[D]run.
And honey, I had no [G]call to try and escape at [D]all,
'Cause by the time I got free,[A] love caught up to [D]me.
Baby, I used to have [G]ways to avoid any [D]place,
That even had half the [A]chance to cut in on my [D]dance.
Yeah, my cool heart hung a[G]round, only if it couldn't be [D]found,
But showed up permanently,[A] when love caught up to [D]me.
[F#] The fascinations of each [G]lie,
[F#] I told myself were reasons [G]why
[E] The feeble boast I made a[F]lone,
[Bb] Sounds faded, worn and all out[A]grown.
[A]INST[G]RUM[D]ENT[A]AL[D] [G] [D] [A] [D]
Hey, I could never af[G]ford honey, all it would [D]cost,
To replace what you [A]do if it ever got [D]lost.
But baby, I'd beg and [G]steal just to keep how I [D]feel,
A way I never did need,[A] 'til love caught up to [D]me.
[F#] The fascinations of each [G]lie,
[F#] I told myself were reasons [G]why
[E] The feeble boast I made a[F]lone,
[Bb] Sound faded, worn and all out[A]grown.
Baby, I couldn't [G]hide no matter how I [D]descry.
Was foolish to have be[A]gun to believe I'd ever out[D]run.
And honey, I had no [G]call to try and escape at [D]all,
'Cause by the time I got free,[A] love caught up to [D]me.
Yeah, by the time I got free[A] love caught up to [D]me.
****************************************************************************************
INTRO (play this at the end of the song too)
[D]  
 
 E------------------------------
 B------------------------------
 G------------------------------
 D--0-0-----0-0-----0-0---------
 A-----3-2-0---3-2-0---3-2-0----
 D--------------------------0--- 

LEAD GUITAR SOLO
[A] [G] [D] [A] [D] 
 
 E---------------------------------------------------------------------------
 B---------------------------------------------------------------------------
 G---------------------------------------------------------------------------
 D---------------------------------------------------------------------------
 A---------------------0-2-0-4-0-5---5-5-4-2-2-4-0--0-0----------------------
 D--0-2-4-2-2-4-5-4-4-5-5------------------------------5-4-4-5-2--5-5-4-0-0-- 

[G] [D] [A] [D] 
 
 E----------------------------------------------
 B----------------------------------------------
 G--------------------2-------2-----------------
 D-----------0---0-2-4--------------------------
 A--5-5-5-4-2-------------0----0----------------
 D-------------------------5-4----5-5-5-4-0-0--- 


Important: The song above is NOT stored on the Chordie server. The original song is hosted at www.allcountrytabs.com. Chordie works as a search engine and provides on-the-fly formatting. Chordie does not index songs against artists'/composers' will. To remove this song please click here.

Text color:
Chord color:
Chord grids: 
Font size:    
Page size: 

A Bb D E F F# G
Rate #1 of 5 versions

Login - add to songbook

SHARE PAGE  




You need to log in to post comments