Guitar Tabs, Chords and Lyrics
Server problems seems to be fixed. Chordie has been experiencing problems with songs disappearing. These issues now seems to be fixed, but still verifying the fix. If you find anything strange, please email admin@chordie.com.


Traveler's Lantern  Dwight Yoakam

Dwight Yoakam - Traveler's Lantern (tab)
E = 022100 B7 = x21202
A = x02220 D = xx0232
*****************************************************************************************
[E]INT[B7]RO[E]
If deep in the [E]night, you [A]hear a voice [E]calling,
Lost and alone, barely [B7]able to [E]speak.
With each weary step through cold [A]shadows they [E]stumble
Blindly along, frail, [B7]hopeless and [E]weak.
Won't you set [A]out a [D]traveler's [A]lantern?
Just a small light so that [D]they might [A]see.
To guide them back [E]home be[A]fore they [E]wander
Into the dark billows that [B7]crash on the [E]sea.
At dawn's rise you may [E]find the [A]footprints of [E]angels,
Brought to fellowship there by your [B7]mercy lamp's [E]flame.
Walking beside the weary [A]soul life's for[E]gotten,
Bringing comfort and love and gently [B7]leading their [E]way.
Won't you set [A]out a [D]traveler's [A]lantern?
Just a small light so that [D]they might [A]see.
To guide them back [E]home be[A]fore they [E]wander
Into the dark billows that [B7]crash on the [E]sea.
[E]INS[A]TRU[E]MENTA[B7]L[E] [A] [E] [B7] [E]
Won't you set [A]out a [D]traveler's [A]lantern?
Just a small light so that [D]they might [A]see.
To guide them back [E]home be[A]fore they [E]wander
Into the dark billows that [B7]crash on the [E]sea.[A] [E]
*****************************************************************************************
h = hammer-on br = bend & release
/ = slide up
*****************************************************************************************
GUITAR SOLO (second half of instrumental)
[E] [A] [E] 
 
 E---------------------------------------------------------------------------
 B----------------------------------------------------------------5-7-5-7/9--
 G--------------1--1-1-1----1--------------------------------4-4-6-----------
 D---------2-4-2--------4--2---------2--2------------------------------------
 A--2-2-2h4-------------------2-2-2h4--4-4-2-2-2-2h4-2-----------------------
 E----------------------------------------------------2br-0------------------

[B7] [E]  
 
 E-------------------------------------------
 B--9-9-9-7--7/9--9-9-7-9--7-----------------
 G----------9---------------9----------------
 D-----------------------------2-2-----------
 A--------------------------------4-2--------
 E-----------------------------------2br-0--- 


Important: The song above is NOT stored on the Chordie server. The original song is hosted at www.allcountrytabs.com. Chordie works as a search engine and provides on-the-fly formatting. Chordie does not index songs against artists'/composers' will. To remove this song please click here.

Text color:
Chord color:
Chord grids: 
Font size:    
Page size: 

A B7 D E
Rate #1 of 1 versions

Login - add to songbook

SHARE PAGE  




You need to log in to post comments